Log in

One click and you are in

Login with Facebook Login with Google

Why sign up and log in

Guitar Tabs Explorer
Chad Kroeger tabs for Hero

Guitar tabs with lyrics

Title: Hero
Album: Spiderman Soundtrack
Tabbed By: Brian Nailling

Tuning: Standard

   You should know that I tabbed this for acoustic guitar. The only real
difference
is the rhythm in some places. Like in the chorus I use consistant strums to
simulate
the drums whereas in the real song they only hit the down beats for the

chorus.
Anyhow, the skeleton is here and you can put the meat on it as you see fit.
As for the

solo the chorus figure is played behind it but the A chord diagramBB power chord is cut
short on rhythm.
Listen to the song and you'll figure it out.

Bend:         ~
slide up:     /
slide down:   \
begin phrase: |
end phrase:   |-


Fig.1  A chord diagramFmaj7Fmaj7 (Verse)
e|-----------------------------------------------------
A chord diagramBB|-----1---1-1-1-1-1---1-1-1-1-1---1-1-1-1-1---1-1-1-1-
A chord diagramG+G|-----2---2-2-2-2-2---2-2-2-2-2---2-2-2-2-2---2-2-2-2-
A chord diagramD MajorD|-----3---3-3-3-3-3---3-3-3-3-3---3-3-3-3-3---3-3-3-3-
A chord diagramA augmentedA|-----0---0-0-0-0-0---0-0-0-0-0---0-0-0-0-0---0-0-0-0-
A chord diagramE MajorE|-----------------------------------------------------

       A chord diagramFF
e------1---1-1-1-1-1---1-1-1-1-1---1-1-1-1-1---1-1-1-1--|
B------1---1-1-1-1-1---1-1-1-1-1---1-1-1-1-1---1-1-1-1--|-
G------2---2-2-2-2-2---2-2-2-2-2---2-2-2-2-2---2-2-2-2--|
D------3---3-3-3-3-3---3-3-3-3-3---3-3-3-3-3---3-3-3-3--|
A------3---3-3-3-3-3---3-3-3-3-3---3-3-3-3-3---3-3-3-3--|-
E------1---1-1-1-1-1---1-1-1-1-1---1-1-1-1-1---1-1-1-1--|

Fig.2  A chord diagramG+G (Bridge)              A chord diagramA augmentedA
e|-----------------------------------------------------
A chord diagramBB|-----------------------------------------------------
A chord diagramG+G|-----4---4-4-4-4-4---4-4-4-4/6---6-6-6-6-6---6-6-6-6-
A chord diagramD MajorD|-----5---5-5-5-5-5---5-5-5-5/7---7-7-7-7-7---7-7-7-7-
A chord diagramA augmentedA|-----5---5-5-5-5-5---5-5-5-5/7---7-7-7-7-7---7-7-7-7-
A chord diagramE MajorE|-----3---3-3-3-3-3---3-3-3-3/5---5-5-5-5-5---5-5-5-5-

       A chord diagramE MajorE
e-------------------------------------------------------|
B-------------------------------------------------------|-
G-----\1---1-1-1-1-1---1-1-1-1-1---1-1-1-1-1---1--------|
D-----\2---2-2-2-2-2---2-2-2-2-2---2-2-2-2-2---2--------|
A-----\2---2-2-2-2-2---2-2-2-2-2---2-2-2-2-2---2--------|-
E-----\0---0-0-0-0-0---0-0-0-0-0---0-0-0-0-0---0--------|

Fig.3  A chord diagramG+G (Chorus)              A chord diagramA augmentedA
e|-----------------------------------------------------
A chord diagramBB|-----------------------------------------------------
A chord diagramG+G|-----4---4-4-4-4-4---4-4-4-4/6---6-6-6-6-6---6-6-6-6-
A chord diagramD MajorD|-----5---5-5-5-5-5---5-5-5-5/7---7-7-7-7-7---7-7-7-7-
A chord diagramA augmentedA|-----5---5-5-5-5-5---5-5-5-5/7---7-7-7-7-7---7-7-7-7-
A chord diagramE MajorE|-----3---3-3-3-3-3---3-3-3-3/5---5-5-5-5-5---5-5-5-5-

       A chord diagramBB
e------------------------------------------------------
B------------------------------------------------------
G------8---8-8-8-8-8---8-8-8-8-8---8-8-8-8-8---8-8-8-8-
D------9---9-9-9-9-9---9-9-9-9-9---9-9-9-9-9---9-9-9-9-
A------9---9-9-9-9-9---9-9-9-9-9---9-9-9-9-9---9-9-9-9-
E------7---7-7-7-7-7---7-7-7-7-7---7-7-7-7-7---7-7-7-7-

       A chord diagramG+G                       A chord diagramA augmentedA
e------------------------------------------------------
B------------------------------------------------------
G------4---4-4-4-4-4---4-4-4-4/6---6-6-6-6-6---6-6-6-6-
D------5---5-5-5-5-5---5-5-5-5/7---7-7-7-7-7---7-7-7-7-
A------5---5-5-5-5-5---5-5-5-5/7---7-7-7-7-7---7-7-7-7-
E------3---3-3-3-3-3---3-3-3-3/5---5-5-5-5-5---5-5-5-5-

       A chord diagramE MajorE
e-------------------------------------------------------|
B-------------------------------------------------------|-
G-----\1---1-1-1-1-1---1-1-1-1-1---1-1-1-1-1---1--------|
D-----\2---2-2-2-2-2---2-2-2-2-2---2-2-2-2-2---2--------|
A-----\2---2-2-2-2-2---2-2-2-2-2---2-2-2-2-2---2--------|-
E-----\0---0-0-0-0-0---0-0-0-0-0---0-0-0-0-0---0--------|


Solo
       A chord diagramG+G           A chord diagramA augmentedA            A chord diagramBB        A chord diagramG+G
e|-----------------------------------------------------
A chord diagramBB|-----------------------------------------------------
A chord diagramG+G|-----7~~-7~--\4--7~~-7~--\2--/4~--/7~--11~~-11~--\7--
A chord diagramD MajorD|-----------------------------------------------------
A chord diagramG+G|-----------------------------------------------------
A chord diagramE MajorE|-----------------------------------------------------

       A chord diagramA augmentedA             A chord diagramE MajorE
e-----------------------------------|
B-----------------------------------|-
G------11~~-11~--\6--4~--7~--9~--11-|
D-----------------------------------|
A-----------------------------------|-
E-----------------------------------|


Acoustic part after solo
(You can Ad Lib it using these chords)
e|-----3---5---7---0---|
A chord diagramBB|-----3---5---7---0---|-
A chord diagramG+G|-----4---6---8---1---|
A chord diagramD MajorD|-----5---7---9---2---|
A chord diagramA augmentedA|-----5---7---9---2---|-
A chord diagramE MajorE|-----3---5---7---0---|

Other versions of Hero

HeroChords

Almost there ...

Sign in to get your own page with links to favourite songs and more. You are just one click away...

Login with Facebook Login with Google