Log in

One click and you are in

Login with Facebook Login with Google

Why sign up and log in

Guitar Tabs Explorer
Chad Kroeger bass tabs for Hero

Bass tabs

  • Tuning: Half-Step Down
  • Difficulty: Beginner
Track 2 from Spider-Man Soundtrack - Hero


Tuning - Half Step Down (Standard)

                Verse
Gb |-------------------------|-----------------------|------------------------------|
Db |-------------------------|-----------------------|------------------------------|
Ab |--0----0----0----0-------|-----------------------|-------0----0----0----0-------|
Eb |----------------------0--|--1----1----1----1--1--|--3------------------------0--|

Gb |---------------------------|
Db |---------------------------|
Ab |---------------------------|
Eb |--1----1--1------1------1--|

                  Pre Chorus
Gb |----------------------|--------------------|--------------------|--------------|
Db |----------------------|--------------------|--------------------|--------------|
Ab |----------------------|--------------------|--------------------|--------------|
Eb |--4--4--4--4--4--4-5--|--6--6--6--6--6--6--|--1--1--1--1--1--1--|--1--1--1--1--|

                   Chorus
Gb |--------------------|------------------|-----------------------|--------------------|
Db |--------------------|------------------|-----------------------|--5--5--5--5--------|
Ab |--------------------|------------------|--3--3--3-3-3--3--3-3--|--------------------|
Eb |--4--4--4--4--4--4--|--6----6--6----6--|-----------------------|--------------6--6--|

Gb |--------------------|-------------------|----------------------|--------------|
Db |--------------------|-------------------|----------------------|--------------|
Ab |--------------------|-------------------|----------------------|--------------|
Eb |--4--4--4--4--4--4--|--6----6--6--6--6--|--1--1-1-1--1--1-1-1--|--1--1--1--1--|

                 Verse II
Gb |---------------|---------------------|-------------------|-------------|
Db |---------------|------------0--1--2--|--------------2-2--|-------------|
Ab |--0----0-------|--0----0-0-----------|-------------------|-------------|
Eb |------------0--|---------------------|--1------1---------|--1----1--1--|

Gb |---------------|----------------------|-----------------|------------------------|
Db |---------------|--------------2-------|--------------3--|-------------3----------|
Ab |--0----0-------|--0----0--0-----------|-----------------|------------------------|
Eb |------------0--|-------------------3--|--1------1-------|--1---1-1--------1-1-1--|

                  Pre Chorus
Gb |----------------------|--------------------|--------------------|--------------|
Db |----------------------|--------------------|--------------------|--------------|
Ab |----------------------|--------------------|--------------------|--------------|
Eb |--4--4--4--4--4--4-5--|--6--6--6--6--6--6--|--1--1--1--1--1--1--|--1--1--1--1--|

                   Chorus II
Gb |--------------------|------------------|-----------------------|--------------------|
Db |--------------------|------------------|-----------------------|--5--5--5--5--------|
Ab |--------------------|------------------|--3--3--3-3-3--3--3-3--|--------------------|
Eb |--4--4--4--4--4--4--|--6----6--6----6--|-----------------------|--------------6--6--|

Gb |--------------------|-------------------|----------------------|--------------------------|
Db |--------------------|-------------------|----------------------|--------------------------|
Ab |--------------------|-------------------|----------------------|--------------------------|
Eb |--4--4--4--4--4--4--|--6----6--6--6--6--|--1--1-1-1--1--1-1-1--|--1--1-1-1-1-1-1-1-1-1-1--|

                   Bridge
Gb |--------------------|-------------------------|----------------------|
Db |--------------------|-------------------------|----------------------|
Ab |--------------------|-------------------------|----------------------|
Eb |--4--4--4--4--4--4--|--6--6-6-6-6-6--6-6-6-6--|--8--8-8-8-8-8--6--6--|

Gb |--------------------|-------------------|----------------------|--------------|
Db |--------------------|-------------------|----------------------|--------------|
Ab |--------------------|-------------------|----------------------|--------------|
Eb |--4--4--4--4--4--4--|--6----6--6--6--6--|--1--1-1-1--1--1-1-1--|--1--1--1--1--|

Rest for a moment

                Final Chorus
Gb |--------------------|------------------|-----------------------|--------------------|
Db |--------------------|------------------|-----------------------|--5--5--5--5--------|
Ab |--------------------|------------------|--3--3--3-3-3--3--3-3--|--------------------|
Eb |--4--4--4--4--4--4--|--6----6--6----6--|-----------------------|--------------6--6--|

Gb |--------------------|-------------------|----------------------|--------------------------|
Db |--------------------|-------------------|----------------------|--------------------------|
Ab |--------------------|-------------------|----------------------|--------------------------|
Eb |--4--4--4--4--4--4--|--6----6--6--6--6--|--1--1-1-1--1--1-1-1--|--1--1-1-1-1-1-1-1-1-1-1--|

                 Outro
Gb |--------------------|------------------|-----------------------|--------------------|
Db |--------------------|------------------|-----------------------|--5--5--5--5--------| X2
Ab |--------------------|------------------|--3--3--3-3-3--3--3-3--|--------------------|
Eb |--4--4--4--4--4--4--|--6----6--6----6--|-----------------------|--------------6--6--|

Gb |----------------------|-------------------------|-------------------------|-----------------|
Db |----------------------|-------------------------|-------------------------|-----------------|
Ab |----------------------|-------------------------|--------------3----3-----|-----------------|
Eb |--4--4-4-4-4-4--4--4--|--6----6-6-6-6-6--6--6\--|--1----1---1----------1--|--1-~~~~----3/8--|

Almost there ...

Sign in to get your own page with links to favourite songs and more. You are just one click away...

Login with Facebook Login with Google