Log in

One click and you are in

Login with Facebook Login with Google

Why sign up and log in

Guitar Tabs Explorer
Kreator tabs for Bone breaker

Guitar tabs

Kreator "Bone Breaker" from ENDLESS PAIN (1985)

Tabbed on 11/16/02 by Nick S. (Pantera9560@aol.com) If you E-mail me, use the
subj. "Bone Breaker tab." To figure out what parts are palm-muted, listen to
the song.
Riff 1
G---------------------2----
D-2-5-2-0-2-0-2-5-2-0-0----
A-0-0-0-0-0-0-0-0-0-0------


Riff 2
A-3--------5-----------
E-1-111111-3-333333----


Riff 2 extended
D-------------------3--------5-----------
A-3--------5--------1-111111-3-333333----
E-1-111111-3-333333----------------------


Riff 3A
D----------------------------6-6-6-6-6----
A-6--------9--------8--------4-4-4-4-4----
E-6-666666-7-777777-6-666666--------------


Riff 3B
D---------------------------6-6-6-6-6----
A---------------------------4-4-4-4-4----
E-666666667777777766666666---------------

Song order:

Riff 1 8x

Riff 2 once

Riff 1 twice

Riff 2 once

Riff 1 twice

Riff 2 extended once

Riff 1 twice

Riff 3A twice

Riff 3B twice

Riff 3A twice

Riff 1 16x

Riff 2 once

Riff 1 twice

Riff 2 once

Riff 1 twice

Riff 2 extended once

Riff 1 twice

Riff 3A twice

Riff 3B twice

Riff 3A twice and just screw around a little bit to end the song.

Almost there ...

Sign in to get your own page with links to favourite songs and more. You are just one click away...

Login with Facebook Login with Google