Log in

One click and you are in

Login with Facebook Login with Google

Why sign up and log in

Guitar Tabs Explorer
Lenny Kravitz tabs for Fields of joy

Guitar tabs with lyrics

Fields of Joy

By Lenny Kravitz

Trans Matt Spencer

Taken from the ablum  " Mamma Said"



Intro


e-----------------------|------------------------------|-
b-----------------------|------------------------------|-
g-----------------------|------------------------------|-
d-----------------------|------------------------------|-
a-------9---------9-----|-----9---7----7--6--6---------|-
e--7--------5---------4-|---------3----3--3--3---------|-  Repeat


This is the riff that appears half way through

You have to listen for the changes in time - rhythm varies on each
repeat, but overall very easy riff to play
e----------------------------------|---------------------------|-
b----------------------------------|---------------------------|-
g----------------------7--7--x-x-x-|-9--9--x-x-x---------------|-
d--9---9---x--x--x--x--7--7--x-x-x-|-9--9--x-x-x--5--x--5-x--7-|-
a--9---9---x--x--x--x--5--5--x-x-x-|-7--7--x-x-x--5--x--5-x--7-|-
e--7---7---x--x--x--x--------------|--------------3--x--3-x--5-|-


Lenny Kravitz - Fields of Joy
       (according to Ralf <gesellen@gwdg.de>,
        SOLO by Andreas <biv94abm@macpost.student.lu.se>)

Thanx to Andreas  <biv94abm@macpost.student.lu.se> whose frame I am using
- unfortunately my transcription of the TABs and chords is different, so
this is my version of how I perceive the really excellent song. (Ralf):

Special chords for the middle part:
          EAdgbe
B(VII)    799877   \  you should stress the bass strings (E-d)
A chord diagramD/AD/A       557775   |  and preferably omit the discant ones
E/G#      476454   |  which allows you to cope with the fingering
G(III)    355433   /  slightly easier, too

All words following are originally from Andreas - I only changed
the chords and TABS (except SOLO):

"This is a favorite of mine. Maybe the solo isn't perfect, please mail
me if you find anything you think is wrong.

Repeat through verses 1, 2 and 4:

e|------------------------
A chord diagramBB|------------------------
A chord diagramG+G|------------------------
A chord diagramD MajorD|----4----4----4-2--2-2-1
A chord diagramA augmentedA|-2----0-----------------
A chord diagramE MajorE|-----------4----3--3-3-3
   A chord diagramBB    A chord diagramD MajorD    A chord diagramE MajorE    A chord diagramG+G       <--Chords for verse 3 and solo
   =              =
B(VII) A chord diagramD/AD/A        E/G#  G(III)  (A chord diagramA augmentedA)
With you     through ...

SOLO (by Slash) [TABs at bottom]

     A chord diagramBB                 A chord diagramD MajorD                A chord diagramE MajorE         A chord diagramG+G     (A chord diagramA augmentedA)
Lets wander slowly     through ...


Solo:(according to Andreas)
e|-------14--------14--------14--------14--------14--------14--------14------
A chord diagramBB|17(19)----17(19)----17(19)----17(19)----17(19)----17(19)----17(19)----15h17

e|------17-----------|---------------|--------------|-----------------------
A chord diagramBB|17(19)--(19)17--15-|-(18)17-15-----|17(19)--15-17-|15-17p15---------------
A chord diagramG+G|-------------------|-----------16~~|--------------|---------14-16-14h16p14

e|------------|------------------11(12)--|-13p12------------14h17---------14
A chord diagramBB|------------|--------------10--------12|-------12--17(19)-------17(19)----
A chord diagramG+G|----14------|7--7(9)---9h11--11--------|----------------------------------
A chord diagramD MajorD|-16---16-14-|7------h9-----------------|----------------------------------

e|----------------|19------------------19----------19----------19---------
A chord diagramBB|-18p17-15h17p15-|19--(19)18--17--15--19s18-17p15-19s18-17p15-19s18-17p15

e|-19----------16(17)-|-14-12-/12-12h14p12----12-------|------------------
A chord diagramBB|-19s18-17p15--------|-------/12----------15----12-15-|---12-15-14-15p14-
A chord diagramG+G|--------------------|--------------------------------|14----14----------

e|-------------7---------------|--------------------|------7------7------
A chord diagramBB|-------12-10--10p7-10p7--7---|-7h10--7h10--7h10p7-|7-10--7-10p7-7-10p7-
A chord diagramG+G|14(16)-11--------------9--9p7|9-----9-----7-------|--------------------

                             seven times
e|-7------7------7------7------7-----------|10-7h9h10-7h9h10-7h9h10-7h9h10
A chord diagramBB|-7-10p7-7-10p7-7-10p7-7-10p7-7-10p7-10p7-|------------------------------

                                                          thirteen
e|-7h9h10-7h9h10-7h9h10-7h9h10-7h9h10-7h9h10-7h9h10-7h9h10-7h9h10-7h9-|7h9h10-

e|9-10p7---7------------7------------------------|------7-7-------7-7-
A chord diagramBB|------10--10p7-10(12)-7-10-7-10p7--7-----------|------7-7-------7-7-
A chord diagramG+G|---------------------------------9--9p7-9p7-7--|9(11)-----9(11)-----
A chord diagramD MajorD|-------------------------------------------9-9-|--------------------

e|------7-7-------7-7-|------7-------7-------7-------7---------|----5------5-
A chord diagramBB|------7-7-------7-7-|------7-------7-------7-------7---------|6h7-6--6-7-6-
A chord diagramG+G|9(11)-----9(11)-----|9(11)---9(11)---9(11)---9(11)---(11)9-9-|-------------

                                     eight
e|----5------5------5------5------5------5-5------------|--------------------7
A chord diagramBB|6h7-6--6h7-6--6h7-6--6h7-6--6h7-6--6h7-6----7-5-7-5---|---------------7-10--
A chord diagramG+G|----------------------------------------------------4-|9(11)-7--9-7---------
A chord diagramD MajorD|------------------------------------------------------|-------------9-------

e|----7-10-12(14)--14(12)-10--12-13-10-12-|12-13p12-------13-12-13p12------
A chord diagramBB|-10-------------------------------12----|--------15p12-------------15p12-

e|-13-12-13p12-------13-12-13p12------16(17)--14----12-12(13)--12(13)-|-14----
A chord diagramBB|------------15p12-------------15p12---------12-15----11(12)---------|-12-15~

e|-12-14-----12h14-----12h14---12h14---12h14---12h14---12h14p12---12------12
A chord diagramBB|-------15-------15-15------15------15------15------15---------15---12h15--
A chord diagramG+G|-------------------14-----------------------------------------------------

e|--------------
A chord diagramBB|-12h15--------
A chord diagramG+G|-------14(16)-

-------------------------------------------------------------------------
Notations:
----5----  play fret five
----5~---  play fret five with vibrato
---7\5---  play fret seven, slide down to fret five
---8(9)--  play fret eight, bend the string (at fret eight) to reach
             the pitch of fret nine
---(9)8--  play fret eight already bent to the pitch of fret nine,
             unbending until it reaches the normal pitch of fret eight
----h7---  hammer-on to fret seven
----p5---  pull-off to fret five
---/12---  slide up to fret 12 (the starting fret of the slide is
             undefined, judge by ear)

The | doesn't really mean anything, I just put them where they made
sense to me.

By the way, this is my first posting here, should I do anything special
to see too that this ends up in Nevada, or does someone else take care
of that " (Andreas)
************************************************************************
HAVE FUN! As for the last paragraph, I could say/ask the same... Ralf.

Other versions of Fields Of Joy

Fields of joyChords

Almost there ...

Sign in to get your own page with links to favourite songs and more. You are just one click away...

Login with Facebook Login with Google