Guitar Tabs Explorer
Lenny Kravitz bass tabs for Are you gonna go my way (Ver. 2)

Are You Gonna Go My Way bass tab


3 / 5 [1 vote]


Ayreon77Author: Ayreon77

Are You Gonna Go My Way bass tab by Lenny Kravitz (Ver. 2)

"Are You Gonna Go My Way" is the opening and title track as well as lead single of American rocker Lenny Krawitz´ third studio album. "Are You Gonna Go My Way" was released in 1993.

Bass tabs

Print
  • Tuning: Standard tuning
  • Difficulty: Novice
-------------------------------------------------------------------
                     Artist - Lenny Kravitz
                    ************************
                 Song - Are You Gonna Go My Way
                ********************************
                     Tabbed By - Ayreon77
                    **********************
-------------------------------------------------------------------
Tuning = Standard          Taken From This Backing Track
                    https://www.youtube.com/watch?v=cujD41imhXQ



00:18
G|----------------s-|----------------|----------------|------------|------------------|
D|-s---12-14-14-14\-|----------------|----------------|------------|------------------|
A|-\14--------------|-7--7---5-7-5---|-7--7---5-7-5---|-7--7---5-7-|-5-7--7---5-7-5---|
E|------------------|------7-------7-|------7-------7-|------7-----|--------7-------7-|

00:26
G|------------|------------------|------------|------------------|
D|------------|------------------|------------|------------------|
A|-7--7---5-7-|-5-7--7---5-7-5---|-7--7---5-7-|-5-7--7---5-7-5---|
E|------7-----|--------7-------7-|------7-----|--------7-------7-|


---------------------------------
VERSE 1
********
00:34
G|---------|----------------|--------------|----------------|
D|---------|----------------|--------------|----------------|
A|-7-----7-|-5-7--7--7--7-5-|-7--7--7--7-5-|-7--7-7-5---5-6-|
E|----0----|----------------|--------------|----------7-----|


G|--------------|--------------|--------------|-------------|
D|--------------|--------------|--------------|-----------s-|
A|-7--7--7--7-5-|-7--7--7--7-5-|-7--7--7--7-5-|-7--7--7--7\-|
E|--------------|--------------|--------------|-------------|


---------------------------------
00:49
CHORUS
*******
G|------------------|----------s-|-----------------------|
D|------------------|-5-3-5-3-5\-|-----------------------|
A|------------------|------------|-----------------------|
E|-3--3--3---1-3--3-|------------|-3--3-3--1-3-3-1-0-1-3-|


G|---------------|---------------|---------------|--------------|
D|---------------|---------------|---------------|------------s-|
A|-7--7--7-5-7-5-|-7--7--7-5-7-5-|-7--7--7-5-7-5-|-7--7--7-5-7\-|
E|---------------|---------------|---------------|--------------|


G|-----------------|------------------|-----------------|---------------------------------|
D|-----------------|------------------|-----------------|---------------------------------|
A|-----------------|----------------s-|-7--7--7-5-7-5-7-|-7---5---5-----------------------|
E|-3-3-3-3-3-3-3-3-|-2-2-2-2-2-2-2-2\-|-----------------|---7---7---7-3-3-3-3-3-3-3-2~~~~-|


---------------------------------
01:20
BREAK
******
G|-------------s-|------------|------------------|------------|------------------|
D|-s------12-12\-|------------|------------------|------------|------------------|
A|-\14-14--------|-7--7---5-7-|-5-7--7---5-7-5---|-7--7---5-7-|-5-7--7---5-7-5---|
E|---------------|------7-----|--------7-------7-|------7-----|--------7-------7-|


---------------------------------
01:29
VERSE 2
********
G|---------------|---------------|---------------|-----------------|
D|---------------|---------------|---------------|-----------------|
A|-7--7--7---5---|-7--7--7---5---|-7--7--7---5---|-7--7-5-7-5-7-5--|
E|---------7---7-|---------7---7-|---------7---7-|-----------------|


G|---------------|---------------|---------------|---------------|
D|---------------|---------------|---------------|---------------|
A|-7--7--7---5---|-7--7--7---5---|-7--7--7---5---|-7--7--7---5---|
E|---------7---7-|---------7---7-|---------7---7-|---------7---7-|


---------------------------------
01:45
CHORUS
*******
G|---------------------|-------|-----------------------------------|
D|---------------------|-3-5-3-|-----------------------------------|
A|---------------------|-------|-----------------------------------|
E|-3--3--0-1-3---1-3-3-|-------|-3--3--3--3--3--3--3--3--3--3--1-3-|


G|---------------|---------------|---------------|--------------|
D|---------------|---------------|---------------|------------s-|
A|-7--7--7-5-7-5-|-7--7--7-5-7-5-|-7--7--7-5-7-5-|-7--7--7-5-7\-|
E|---------------|---------------|---------------|--------------|


G|-----------------|-----------------|---------------|-----------------------------|
D|-----------------|-----------------|---------------|-----------s-----------------|
A|-----------------|----------s----5-|-7--7--5-7-5---|-7--7-7-5-7\-----------------|
E|-3-3-3-3-3-3-3-3-|-2-2-2-2-5\7-7---|-------------7-|-------------3-3-3-3-3-3-3-2-|


---------------------------------
02:23
SOLO
*****
     s            h        h       s
G|-11\13--11--9--9-11--9--9-11--9~~\-|
D|-----------------------------------|
A|-----------------------------------|
E|-----------------------------------|


G|-------|------------------------------|------------------------------|
D|-------|----------5-6-7--5-6-7--------|----------3-4-5--4-5-7--------|
A|-------|-7---7-5----------------4-5-6-|-7---7-5----------------4-5-6-|
E|-7-7-7-|---7--------------------------|---7--------------------------|


G|-----------------------------|------------------------------|
D|-----------------------------|----------3-4-5---------------|
A|-7---7-5--------3-4-5--4-5-6-|-7---7-5---------3-4-5--4-5-6-|
E|---7------3-4-5--------------|---7--------------------------|

02:41
G|-----------------------------|-----------------------------|
D|----------3-4-5--4-5-7-------|-----------------------------|
A|-7---7-5---------------4-5-6-|-7---7-5--------3-4-5--4-5-6-|
E|---7-------------------------|---7------3-4-5--------------|


G|-----------------5-6-7--------|----------------------|
D|----------5-6-7---------5-7-5-|----------------------|
A|-7---7-5----------------------|-7---7-5------h-p-----|
E|---7--------------------------|---7------7--5-7-5~~~-|


---------------------------------
02:58
BREAK
******
G|-------------|-------------------|-------------|-------------------|
D|-------------|-------------------|-------------|-------------------|
A|-7--7----5-7-|-5-7--7----5-7-5---|-7--7----5-7-|-5-7--7----5-7-5---|
E|-------7-----|---------7-------7-|-------7-----|---------7-------7-|


G|-------------|-------------------|-------------|-------------------|
D|-------------|-------------------|-------------|-------------------|
A|-7--7----5-7-|-5-7--7----5-7-5---|-7--7----5-7-|-5-7--7----5-7-5---|
E|-------7-----|---------7-------7-|-------7-----|---------7-------7-|


03:12
G|-----------------|---------------------------------|
D|-----------------|---------------------------------|
A|-----------------|---------------------------------|
E|-3-3-3-3-3-3-3-3-|-2-2-2-2-3-3-3-3-3-3-3-2-2-2~~~~-|


---------------------------------
03:19
OUTRO
******
G|---------------|--------------|----------------|
D|---------------|--------------|----------------|
A|-7--7--7-5---5-|-7--7--7-5--s-|----------------|
E|-----------7---|-----------7\-|3-3-3-3-3-3-3-2-|


ENJOY......

Other versions of Are You Gonna Go My Way

- Are you gonna go my wayBass tabs

Comment this song and these bass tabs

Do you have corrections, comments on the bass tabs, thoughts about the song or a message to the author? Write them below.