Log in

One click and you are in

Login with Facebook Login with Google

Why sign up and log in

Guitar Tabs Explorer
Richie Kotzen bass tabs for My angel

Bass tabs

Tuning: Standard (E A D G)


(Intro)
G|---------------------|
D|---------------------|
A|------------3----5-6-|
E|-6----1--------------|
 (Verse1)  x2
G|--------------------|
D|--------------------|
A|-----------3----5-6-|
E|-6----1-------------|

(Chorus)    x2
G|--------------------------|
D|-------3/5-3--------------|
A|-------------5-3-3----5-6-|
E|-6----1-------------------|

 (Verse1)  x2
G|--------------------|
D|--------------------|
A|-----------3----5-6-|
E|-6----1-------------|

(Chorus)    x2
G|--------------------------|
D|-------3/5-3--------------|
A|-------------5-3-3----5-6-|
E|-6----1-------------------|

(Mid eight)
G|----------------------------|
D|----------------------------|
A|------6-5-3-1----6-5-3-1----|
E|-3--1--------3-1--------3-1-|

(Chorus)    x2
G|--------------------------|
D|-------3/5-3--------------|
A|-------------5-3-3----5-6-|
E|-6----1-------------------|

(Solo)  x2
G|--------------------------|
D|-------3/5-3--------------|
A|-------------5-3-3----5-6-|
E|-6----1-------------------|

 ******************
 / slide up
 ******************

Almost there ...

Sign in to get your own page with links to favourite songs and more. You are just one click away...

Login with Facebook Login with Google