Log in

One click and you are in

Login with Facebook Login with Google

Why sign up and log in

Guitar Tabs Explorer
Kortatu bass tabs for Desmond tutu

Bass tabs

Ahí va:


----------------------------------
----------------------------------
-------------4s6-6----------------
-4-4-0-1-6-6-------4-4-0-0-6-6-0-0

Ese es el "riff principal", el que hace en la intro y la estrofa.

Puente:

-------------------------
-------------4-4-4-------
-------------------4-----
-4-4-0-1-2-----------2-2- (x2)

Estribillo

---------------------
---------------------
---------1-4---------
-x-0-1-2-----4-0-1-2- (la "x" representa un silencio)

Luego repite el puente:

-------------------------
-------------4-4-4-------
-------------------4-----
-4-4-0-1-2-----------2-2- (x2)

Y vuelve al riff principal.

Luego, en el cambio, solo toca el estribillo, pero con una pequeña variacion
(elimina el silencio), que sacareís sin problemas.

Almost there ...

Sign in to get your own page with links to favourite songs and more. You are just one click away...

Login with Facebook Login with Google