Log in

One click and you are in

Login with Facebook Login with Google

Why sign up and log in

Guitar Tabs Explorer
Korn bass tabs for Y all want a single

Bass tabs

(yall wanna single...)
G--------------
D--------------
A--------------
A-1-0----1-0--- X3

G---------------
D---------------
A---------------
A-1-0-3333-2-0-1 X8

G-------------------
D-------------------
A-------------------
A-000-0-01-000-0-01- x2

G---------------------
D---------------------
A---------------------
A-0~-1-3~-3-8~-8-7-10-

(whats goin on today...)
G-------------------
D-------------------
A-------------------
A-000-0-01-000-0-01- X5

(Yall want a single...)
G---------------
D---------------
A---------------
A-1-0-3333-2-0-1 X8

G---------------------
D---------------------
A---------------------
A-0~-1-3~-3-8~-8-7-10-

(whats goin on today...)
G-------------------
D-------------------
A-------------------
A-000-0-01-000-0-01- X5

(Yall want a single...)
G---------------
D---------------
A---------------
A-1-0-3333-2-0-1 X8

(We are the ones...)
G---------------------
D---------------------
A---------------------
A-0~-1-3~-3-8~-8-7-10- X4

(yall wanna single...)
G--------------
D--------------
A--------------
A-1-0----1-0--- X5

(Fuuuuuuuuuuuuuuuuck!...)
G---------------
D---------------
A---------------
A-1-0-3333-2-0-1
Keep going till the song ends.

Almost there ...

Sign in to get your own page with links to favourite songs and more. You are just one click away...

Login with Facebook Login with Google