Log in

One click and you are in

Login with Facebook Login with Google

Why sign up and log in

Guitar Tabs Explorer
Korn bass tabs for Trash

Bass tabs

Trash - KoRn
                  Tabbed By Josh Andrews
				  Words And Music by KoRn
Note: Slap All Notes, Listen To The Song To Get The Duration Of The Notes



Intro


F||---------------------|-------------------|
C||---------------------|-------------------|
G||---------------------|-------------------|
D||---------------------|-------------------|
A||--5-5------------6-6-|--0-0----------6-6-|


Verse

|--------------------------|---------------------------|
|--------------------------|---------------------------|
|--------------------------|---------------------------|
|--------------------------|---------------------------|
|--3-2-0-----3-2-0---------|--3-2-0-----3-2-0--0--1----|


--------------------------|---------------------------|
--------------------------|---------------------------|
--------------------------|---------------------------|
--------------------------|---------------------------|
--3-2-0-----3-2-0---------|--3-2-0-----3-2-0--0--1----|


--------------------------|---------------------------|
--------------------------|---------------------------|
--------------------------|---------------------------|
--------------------------|---------------------------|
--3-2-0-----3-2-0---------|--3-2-0-----3-2-0--0--1----|


--------------------------|---------------------------|
--------------------------|---------------------------|
--------------------------|---------------------------|
--------------------------|---------------------------|
--3-2-0-----3-2-0---------|--3-2-0-----3-2-0--0--1----|


--------------------------|---------------------------|
--------------------------|---------------------------|
--------------------------|---------------------------|
--------------------------|---------------------------|
--3-2-0-----3-2-0---------|--3-2-0-----3-2-0--0--1----|


--------------------------|---------------------------|
--------------------------|---------------------------|
--------------------------|---------------------------|
--------------------------|---------------------------|
--3-2-0-----3-2-0---------|--3-2-0-----3-2-0--0--1----|


Little Breakdown Thing


-----------------------------|----------------------------|
-----------------------------|----------------------------|
-----------------------------|----------------------------|
-----------------------------|----------------------------|
--0---0--0-0----0---0-----1--|--0---0--0-0----0---0--1----|


-----------------------------|----------------------------|
-----------------------------|----------------------------|
-----------------------------|----------------------------|
-----------------------------|----------------------------|
--0---0--0-0----0---0-----1--|--0---0--0-0----0---0--1----|


Back To The Chorus


---------------------|-------------------|
---------------------|-------------------|
---------------------|-------------------|
---------------------|-------------------|
--5-5------------6-6-|--0-0----------6-6-|


---------------------|-------------------|
---------------------|-------------------|
---------------------|-------------------|
---------------------|-------------------|
--5-5------------6-6-|--0-0----------6-6-|


Verse

---------------------------|--------------------------|
---------------------------|--------------------------|
---------------------------|--------------------------|
---------------------------|--------------------------|
--3-2-0-----3-2-0----------|--3-2-0-----3-2-0--0--1---|


---------------------------|--------------------------|
---------------------------|--------------------------|
---------------------------|--------------------------|
---------------------------|--------------------------|
--3-2-0-----3-2-0----------|--3-2-0-----3-2-0--0--1---|


---------------------------|--------------------------|
---------------------------|--------------------------|
---------------------------|--------------------------|
---------------------------|--------------------------|
--3-2-0-----3-2-0----------|--3-2-0-----3-2-0--0--1---|


---------------------------|--------------------------|
---------------------------|--------------------------|
---------------------------|--------------------------|
---------------------------|--------------------------|
--3-2-0-----3-2-0----------|--3-2-0-----3-2-0--0--1---|


Another Little Breakdown


-----------------------------|-----------------------------|
-----------------------------|-----------------------------|
-----------------------------|-----------------------------|
-----------------------------|-----------------------------|
--0---0--0-0----0---0-----1--|--0---0--0-0----0---0-----1--|


-----------------------------|-----------------------------|
-----------------------------|-----------------------------|
-----------------------------|-----------------------------|
-----------------------------|-----------------------------|
--0---0--0-0----0---0-----1--|--0---0--0-0----0---0-----1--|



Chorus


---------------------|---------------------|
---------------------|---------------------|
---------------------|---------------------|
---------------------|---------------------|
--5-5------------6-6-|--0-0------------6-6-|

---------------------|---------------------|
---------------------|---------------------|
---------------------|---------------------|
---------------------|---------------------|
--5-5------------6-6-|--0-0------------6-6-|


---------------------|---------------------|
---------------------|---------------------|
---------------------|---------------------|
---------------------|---------------------|
--5-5------------6-6-|--0-0------------6-6-|

---------------------|---------------------|
---------------------|---------------------|
---------------------|---------------------|
---------------------|---------------------|
--5-5------------6-6-|--0-0------------6-6-|


Breakdown


----------------------------|----------------------------|
----------------------------|----------------------------|
----------------------------|----------------------------|
----------------------------|----------------------------|
--0---0--0-0----0---0-------|--0---0--0-0----0---0-------|


----------------------------|----------------------------|
----------------------------|----------------------------|
----------------------------|----------------------------|
----------------------------|----------------------------|
--0---0--0-0----0---0-------|--0---0--0-0----0---0-------|


----------------------------|----------------------------|
----------------------------|----------------------------|
----------------------------|----------------------------|
----------------------------|----------------------------|
--0---0--0-0----0---0-------|--0---0--0-0----0---0-------|


----------------------------|----------------------------|
----------------------------|----------------------------|
----------------------------|----------------------------|
----------------------------|----------------------------|
--0---0--0-0----0---0-------|--0---0--0-0----0---0-------|


Outro


---------------------|---------------------|
---------------------|---------------------|
---------------------|---------------------|
---------------------|---------------------|
--5-5------------6-6-|--0-0------------6-6-|

---------------------|---------------------|
---------------------|---------------------|
---------------------|---------------------|
---------------------|---------------------|
--5-5------------6-6-|--0-0------------6-6-|

---------------------|---------------------|
---------------------|---------------------|
---------------------|---------------------|
---------------------|---------------------|
--5-5------------6-6-|--0-0------------6-6-|

---------------------|---------------------|
---------------------|---------------------|
---------------------|---------------------|
---------------------|---------------------|
--5-5------------6-6-|--0-0------------6-6-|

---------------------|---------------------|
---------------------|---------------------|
---------------------|---------------------|
---------------------|---------------------|
--5-5------------6-6-|--0-0------------6-6-|
ⓘ Bass guitar tab for 'Trash' by Korn, a nu metal band formed in 1993 from Bakersfield, California, USA. Korn is known for their angry metal music.

Almost there ...

Sign in to get your own page with links to favourite songs and more. You are just one click away...

Login with Facebook Login with Google