Guitar Tabs Explorer
Korn guitar tabs for Kunt (Ver. 2)

Kunt tab


Be the first to rate

Kunt tab by Korn (Ver. 2)

Guitar tabs

Print

-----------------------------------------------------------------------------
			     Kunt - Korn
-----------------------------------------------------------------------------
Tabbed by:

Tuning: 7 String Guitar tuned 1 whole-step down (low to high): D chord diagramDD

Intro/Chorus/Outro

d|------------------------------------------|
A|------------------------------------------|
F| chord diagramF|F|------------------------------------------|
C| chord diagramC|C|------------------------------------------|
G|-11-\-10--10--9--8--8--9-\-8--8--8--------|
D|-10-\-9---9---8--7--7--8-\-7--7--7--------|
A|------------------------------------------|

Verse(s) (played with Whammy Pedal)

d|--------------------------------------------------------------------------|
A|-12*----------12*-------12*---------12*-------12*---------12*-------12*---|
F| chord diagramF|F|------x-x-x--------x-x-------x-x-x-------x-x-------x-x-x-------x-x--------|
C| chord diagramC|C|--------------------------------------------------------------------------|
G|--------------------------------------------------------------------------|
D|--------------------------------------------------------------------------|
A|--------------------------------------------------------------------------|
pm      - - -        - -       - - -       - -       - - -       - -

Verse(s) (continued)

d|--------------------|
A|-------12*----------|
F chord diagramFF|x-x-x-------x-x-----|
C| chord diagramC|C|--------------------|
G|--------------------|
D|--------------------|
A|--------------------|
pm- - -       - -

Pre-Chorus/Bridge B chord diagramBB

d|------------------------------|
A|------------------------------|
F| chord diagramF|F|------------------------------|
C| chord diagramC|C|-6---7---8---9--10------------|
G|-4---7---6---7--9-------------|
D|-4---5---6---7--9-------------|
A|------------------------------|


Bridge A chord diagramAA

d|-------------------------------------|
A|------13---------13------------------|
F| chord diagramF|F|-x-x--16--x-x-x--16------------------|
C| chord diagramC|C|-------------------------------------|
G|-------------------------------------|
D|-------------------------------------|
A|-------------------------------------|
pm:- -      - - -



Intro (Clean)
Intro (Distortion)
Verse
Pre-Chorus
Chorus
Verse
Pre-Chorus
Chorus
(Drum fill)
Bridge A chord diagramAA
Bridge B chord diagramBB
Chorus
Outro



************************************

| pm  palm mute
| /   slide up
| \   slide down
| h   hammer-on
| p   pull-off
| ~   vibrato
| *   harmonic
| x   Mute note
| B chord diagramBB   Bend
| pb  Pre-bend
| br  Bend release
| pbr Pre-bend release
| brb Bend release bend

Other versions of Kunt

KuntTabs

Comment this song and these guitar tabs

Do you have corrections, comments on the guitar tabs, thoughts about the song or a message to the author? Write them below.