Guitar Tabs Explorer
Korn guitar tabs for Kill you

Kill You tab


Be the first to rate

Kill You tab by Korn

Guitar tabs with lyrics

Print

Kill You-KoRn (Life is Peachy)

Transcribed by Billy Luisi<bluisi@juno.com>


Intro/Verse Riff 1 w/Flange
a||-----------------------------------------------------||
f||-------------------------------7---7-7---------------||
C|| chord diagramC||C||-------------------------5-------------5-5----5---5--|| play this very slow
B||--5--5--5--5--5---5--4-4---4-4--------------4---4----||
B||-----------------------------------------------------||
B||-----------------------------------------------------||

Pre-Chorus Riff 1 w/distortion "Now these memories..."
a||--------------------------------||
f||--------------------------------|| This part is that REALLY HEAVY note
C|| chord diagramC||C||--------------------------------|| turn up your bass all the way, on this
B||-2------------6--------5/4/3----|| one, to get that ballzy sound
B||-0------------6--------5/4/3----|| Let the first 2 chords ring out.
B||--------------4--------3/2/1----||

Chorus Riff 1 "You are not my real mother..."
a||----------------------||
f||----------------------||
C|| chord diagramC||C||----------------------||this part is similiar to the pre-chorus, same
B||-2--6--5/4/3----------||chords but it's played a bit faster
B||-0--6--5/4/3----------||
B||----4--3/2/1----------||

Bridge Riff 1 "Looking back.."    Bride riff 2(Noise part)
Guitar 1                          Guitar 2
 P.M..........
d||-------------||               d||---13/14-----15/14/13------||
a||-------------||               a||---------------------------||not too
C|| chord diagramC||C||-------------||               C|| chord diagramC||C||---------------------------||sure about
B||-------------||               B||---------------------------||this part??
B||-2-2-2-2-2---||               B||---------------------------||
B||-0-0-0-0-0---||               B||---------------------------||

Intro/Verse Riff 1 w/Flange "You made my life not so.."
a||-----------------------------------------------------||
f||-------------------------------6---6-6---------------||
C|| chord diagramC||C||-------------------------4-------------4-4----4---4--|| play this very slow
B||--5--5--5--5--5---5--3-3---3-3--------------3---3----||
B||-----------------------------------------------------||
B||-----------------------------------------------------||

End Riff 1 "Wish, You were dead.."
a||--------------------------------||
f||--------------------------------||
C|| chord diagramC||C||--------------------------------||
B||-2------------6--------5/4/3----||
B||-0------------6--------5/4/3----||
B||--------------4--------3/2/1----||

-------------------------------------------------------------------------
---------------------------------------------------------------------------
I didn't plan on tabbing "Kill You" next but, anyway, here it is! This should
be all of the parts. To play this (unlike "Good God") you have to tune your
guitar down 5 steps to "A". These are the advantages of owning a 7 string,
but most people don't. With "Good God" you need the higher string, to play
the songs, and with "Kill You" you cannot play the chorus without the lower
"A" string. Remember if your going to drop from a "E" to a "A" your going
have to buy a heavy gauge strings. My low "A" is a ".56". On the intro riff
I think Munky said in Guitar School, he uses a Leslie cabinet, I, again, use
my small stone phase shifter. Oh well, send me corrections,comments,etc.
ohh yeah check out my web site http://www.geocities.com/SoHo/3648/index.htm
it's got some "rare" KoRn tracks in real audio.
Later,
-Bill<bluisi@juno.com

Comment this song and these guitar tabs

Do you have corrections, comments on the guitar tabs, thoughts about the song or a message to the author? Write them below.