Search tabs and chords

Search for song, artist or band

Log in

One click and you are in

Login with Facebook Login with Google

Why sign up and log in

Guitar Tabs Explorer
Korn guitar tabs for Kill mercy within

Guitar tabs

Tabbed By: FRr3AkOnALEaSh (smokin_05@hotmail.com)
Tuning: 7 String Tuned Down 1 Whole Step (A chord diagramA majorA A chord diagramD MajorD A chord diagramG MajorG A chord diagramC majorC A chord diagramFF A chord diagramA majorA A chord diagramD MajorD)

Riff 1 (Intro/Outro)(Guitar 1)
D|---------------------------|
A|---------------------------|
F|---------------------8-----|
C|--------10~---8~------6----|
G|--10-------------10----8~--|
D|----8----------------------|
A|-----8~-----8------8-------|

Riff 2 (Intro/Outro)(Guitar 2)
D|---------------------------|
A|--------13~-9/11~----------|
F|-----------------12--8-----|
C|---------------------------|
G|---------------------------|
D|---------------------------|
A|---------------------------|

Riff 3 (Intro/Outro)(Guitar 1)
D|-------------------------------|
A|-------------------------------|
F|-------------------------8-----|
C|--------10~---10/12~------6----|
G|--10-----------------10----8~--|
D|----8--------------------------|
A|-----8~-----8----------8-------|

Riff 4 (Intro/Outro)(Guitar 2)
D|-------------------------------|
A|--------13~---13/15~-----------|
F|--------------------12~--8-----|
C|-------------------------------|
G|-------------------------------|
D|-------------------------------|
A|-------------------------------|

Riff 5 (Intro/Chorus/Bridge)
D|------------------------------|
A|------------------------------|
F|------------------------------|
C|------------------------------|
G|--10----------------------8~--|
D|----8-----------------11------|
A|-----8~-888-8/11~-88~----8----|

Riff 6 (Intro/Chorus/Bridge)
D|----------------------------|
A|----------------------------|
F|----------------------------|
C|----------------------------|
G|--10--------------------8~--|
D|----8---------------11------|
A|-----88888-8/11-88~----8----|

************************************

| /   slide up
| \   slide down
| h   hammer-on
| p   pull-off
| ~   let ring (until next note)
| +   harmonic
| x   Mute note
| b   Bend
| pb  Pre-bend
| br  Bend release
| pbr Pre-bend release
| brb Bend release bend

Other versions of Kill Mercy Within

Kill mercy within (Ver. 2)Tabs

Almost there ...

Sign in to get your own page with links to favourite songs and more. You are just one click away...

Login with Facebook Login with Google