Search tabs and chords

Search for song, artist or band

Log in

One click and you are in

Login with Facebook Login with Google

Why sign up and log in

Guitar Tabs Explorer
Korn guitar tabs for Kill mercy within (Ver. 2)

Guitar tabs

Music written by Korn, Nick Roos, Martijn van Sonderen, and Thijs de Vlieger

6 string adaptation of 7 string (D, G, C, F, A, A chord diagramD MajorD)


Intro (guitar only):

Guitar 1 (Munky)
d|-------------------------------------------------------------------------|
a|-------------------------------------------------------------------------|
f|------------/5-(5)---/3-(3)---------8------------------------------------|
C|--5-------------------------5---------6----------------------------------|
G|----3-----------------------------------8-(8)----------------------------|
D|------3-(3)--------3----------3-(3)--------------------------------------|

d|-------------------------------------------------------------------------|
a|-------------------------------------------------------------------------|
f|------------/5-(5)---/7-(7)----------------------------------------------|
C|--5-------------------------5-------1------------------------------------|
G|----3--------------------------------------------------------------------|
D|------3-(3)--------3----------3-(3)---4-1-(1)----------------------------|

d|-------------------------------------------------------------------------|
a|-------------------------------------------------------------------------|
f|------------/5-(5)---/3-(3)---------8------------------------------------|
C|--5-------------------------5---------6----------------------------------|
G|----3-----------------------------------8-(8)----------------------------|
D|------3-(3)--------3----------3-(3)--------------------------------------|


d|-------------------------------------------------------------------------|
a|-------------------------------------------------------------------------|
f|------------/5-(5)---/7-(7)----------------------------------------------|
C|--5-------------------------5--------------------------------------------|
G|----3-------------------------------4~-----------------------------------|
D|------3-(3)--------3----------3-(3)--------------------------------------|

Intro (full band):
d|---------------------------------------------------------------------|
a|---------------------------------------------------------------------|
f|---------------------------------------------------------------------|
C|--5------------------------------------------------------------------|
G|----3------------------------------6---8-(8)-------------------------|
D|------3-(3)-3-(3)-3/6-(6)\-3-(3)-3---3-------------------------------|
                                                                         2x

d|---------------------------------------------------------------------|
a|---------------------------------------------------------------------|
f|---------------------------------------------------------------------|
C|--5------------------------------------------------------------------|
G|----3----------------------6---8-(8)---------------------------------|
D|------3-3-3-3-3/6-(6)\-3-3---3---------------------------------------|


Verse:
d|---------------------------------------------------------------------|
a|----------------------6-(6)------------------------------------------|
f|---------------------------------------------------------------------| 4x
C|--5-------------------3-(3)-5----------------------------------------|
G|----3-------5-5-5-5-----------3-------5-5-5-5------------------------|
D|------3-----3-3-3-3-------------3-----3-3-3-3------------------------|
              * * * *                   * * * *

Chorus:
d|---------------------------------------------------------------------|
a|---------------------------------------------------------------------|
f|---------------------------------------------------------------------| 4x
C|--5------------------------------------------------------------------|
G|----3------------------------------6---8-(8)-------------------------|
D|------3-(3)-3-(3)-3/6-(6)\-3-(3)-3---3-------------------------------|

d|---------------------------------------------------------------------|
a|---------------------------------------------------------------------|
f|---------------------------------------------------------------------| 4x
C|--5------------------------------------------------------------------|
G|----3-------5-(5)-5/8-(8)\5-5-5-x-5----------------------------------|
D|------3-(3)-3-(3)-3/6-(6)\3-3-3-x-3----------------------------------|


Verse

Chorus


Bridge:
Guitar 1 (clean w/ a little bit of delay)
d|--17`------------------17`--------------------------------------------|
a|-------------------------------------------18-------------------------|
f|------------17`------------------19`----------19`-----14`---15`-------| 2x
C|----------------------------------------------------------------------|
G|----------------------------------------------------------------------|
D|----------------------------------------------------------------------|

Guitar 2 (distortion)
d|-------------------------------------------------------------------------|
a|-------------------------------------------------------------------------|
f|------------/5-(5)---/3-(3)---------8------------------------------------|
C|--5-------------------------5---------6----------------------------------|
G|----3-----------------------------------8-(8)----------------------------|
D|------3-(3)--------3----------3-(3)--------------------------------------|

d|-------------------------------------------------------------------------|
a|-------------------------------------------------------------------------|
f|------------/5-(5)---/7-(7)----------------------------------------------|
C|--5-------------------------5-------1------------------------------------|
G|----3--------------------------------------------------------------------|
D|------3-(3)--------3----------3-(3)---4-1-(1)----------------------------|

d|-------------------------------------------------------------------------|
a|-------------------------------------------------------------------------|
f|------------/5-(5)---/3-(3)---------8------------------------------------|
C|--5-------------------------5---------6----------------------------------|
G|----3-----------------------------------8-(8)----------------------------|
D|------3-(3)--------3----------3-(3)--------------------------------------|


d|-------------------------------------------------------------------------|
a|-------------------------------------------------------------------------|
f|------------/5-(5)---/7-(7)----------------------------------------------|
C|--5-------------------------5--------------------------------------------|
G|----3-------------------------------4~-----------------------------------|
D|------3-(3)--------3----------3-(3)--------------------------------------|


Chorus

Outro:
d|---------------------------------------------------------------------|
a|---------------------------------------------------------------------|
f|---------------------------------------------------------------------| 4x
C|--5------------------------------------------------------------------|
G|----3-------5-(5)-5/8-(8)\5-5-5-x-5----------------------------------|
D|------3-(3)-3-(3)-3/6-(6)\3-3-3-x-3----------------------------------|




Guitar Legend:
x = silence
` = repeatedly pick (8th notes)
/ = slide
* = palm mute
()= ghost note

Other versions of Kill Mercy Within

Kill mercy withinTabs

Almost there ...

Sign in to get your own page with links to favourite songs and more. You are just one click away...

Login with Facebook Login with Google