Search tabs and chords

Search for song, artist or band

Log in

One click and you are in

Login with Facebook Login with Google

Why sign up and log in

Guitar Tabs Explorer
Korn bass tabs for Its on

Bass tabs

Intro (Slap Distortion)
F|--------------|
C|--------------|
G|--------------|--------|
D|---97---5----|        |
A|-0-----0---00-|        |
                         |--> Repeat this 3 times
F|------------------|    |
C|------------------|    |
G|------------------|----|
D|---97---5--------|
A|-0-----0---00-31-|

Last time
F|--------------|
C|--------------|
G|--------------|
D|---97---5----|
A|-0-----0---00-|

F|------------------|
C|------------------|
G|------------------|
D|---97---5--------|
A|-0-----0---00-2-3-|

Intro II (Slap Distortion)
F|----------------------------|
C|----------------------------|
G|----------------------------|x3
D|---97---5------97---------|
A|-0-----0---0--0-----0-0-31-|

F|--------------------------|
C|--------------------------|
G|--------------------------|x1
D|---97---5------97-------|
A|-0-----0---0--0-----0-2-3-|

Verse (Fat distortion with Phase effect)
F|-----------------|
C|-----------------|
G|-----------------|x7
D|---987---987-|
A|-0-------0-------|

F|---------------------|
C|---------------------|
G|---------------------|
D|---987---987-----|
A|-0-------0-------8-7-|

F|-----------------|
C|-----------------|
G|-----------------|x4
D|---987---987-|
A|-0-------0-------|

Come on!
F|-----|
C|-----|
G|-----|
D|-----|
A|-2-3-|

Pre - Chorus: Same as Intro II

Chorus (Fat Distortion)
F|----------------------------|
C|-1-0----------0-1-----------|
G|-----0~----------0~---------|x2
D|----------------------------|
A|---------2-0~----------2-0~-|

Sratching Bridge ("This time, thiiiiiiiissss tiiiiiiiiiiiime")
Here fieldy scratch the "A" string using: resonant wah, Drive distrotion, Crystal
Chorus and Delay.
Believe me, I thought this was played by a guitar but watch It's On live at Sydney '99 and
you'll see
that he play this.

Bridge II (Fat Distortion)
F|--------------------------|
C|--------------------------|
G|--------------------------|x7
D|---1

Almost there ...

Sign in to get your own page with links to favourite songs and more. You are just one click away...

Login with Facebook Login with Google