Guitar Tabs Explorer
Korn bass tabs for Hypocrites

Hypocrites bass tab


Be the first to rate

Hypocrites bass tab by Korn

Bass tabs

Print
Verse x2

G|----------------------|-------------------|
D|----------------------|-------------------|
A|----------------------|-------------------|
E|-5-5--3/5--5--6-6-3-8-|-5-5--3/5--5-8-6-4-|

G|----------------------|---------------------|
D|----------------------|---------------------|
A|----------------------|---------------------|
E|-5-5--3/5--5--6-6-3-8-|-5--3/5'”5--4-x-6-x-8-|


End of Verse x6

G|--------------------------|
D|--------------------------|
A|--------------------------|
E|-5--5h6p5p3'”5--5h6p5p3--5-|

Pre-Chorus

G|----------------------------|
D|----------------------------|
A|-6-7-6-----6-7-6-----10~-7~-|
E|-------8-5-------8-5--------|

G|-8-9-8------8-9-8----------|
D|-------10-7-------10-7-----|
A|---------------------------|
E|-----------------------8-5-|

Fill

G|---------------------|
D|---------------------|
A|-6-7-6-----6-7-6-----|
E|-------8-5-------8-5-|

G|-8-9-8------8-9-8------|
D|-------10-7-------10-7-|
A|-----------------------|
E|-----------------------|

Chorus

G|---------------------|-------------------|
D|---------------------|-------------------|
A|---------------------|-------------------|
E|-5-5--3/5--5-6-6-3-8-|-5-5--3/5--5-8-6-4-|

G|---------------------|----r----|
D|---------------------|----e----|
A|---------------------|----s----|
E|-5-5--3/5--5-6-6-3-8-|----t----|

Verse x2

G|----------------------|-------------------|
D|----------------------|-------------------|
A|----------------------|-------------------|
E|-5-5--3/5--5--6-6-3-8-|-5-5--3/5--5-8-6-4-|

G|----------------------|---------------------|
D|----------------------|---------------------|
A|----------------------|---------------------|
E|-5-5--3/5--5--6-6-3-8-|-5--3/5'”5--4-x-6-x-8-|

Rest

End of Verse x6

G|-------------------------------|
D|-------------------------------|
A|-------------------------------|
E|-5--5h6p5p3'”5--5h6p5p3--5-5-5--|

Pre-Chorus

G|----------------------------|
D|----------------------------|
A|-6-7-6-----6-7-6-----10~-7~-|
E|-------8-5-------8-5--------|

G|-8-9-8------8-9-8----------|
D|-------10-7-------10-7-----|
A|---------------------------|
E|-----------------------8-5-|

Fill

G|---------------------|
D|---------------------|
A|-6-7-6-----6-7-6-----|
E|-------8-5-------8-5-|

G|-8-9-8------8-9-8------|
D|-------10-7-------10-7-|
A|-----------------------|
E|-----------------------|

Chorus

G|---------------------|-------------------|
D|---------------------|-------------------|
A|---------------------|-------------------|
E|-5-5--3/5--5-6-6-3-8-|-5-5--3/5--5-8-6-4-|

G|---------------------|----r----|
D|---------------------|----e----|
A|---------------------|----s----|
E|-5-5--3/5--5-6-6-3-8-|----t----|

Verse x2

G|----------------------|-------------------|
D|----------------------|-------------------|
A|----------------------|-------------------|
E|-5-5--3/5--5--6-6-3-8-|-5-5--3/5--5-8-6-4-|

G|----------------------|---------------------|
D|----------------------|---------------------|
A|----------------------|---------------------|
E|-5-5--3/5--5--6-6-3-8-|-5--3/5'”5--4-x-6-x-8-|

Bridge

G|-8-9-8------8-9-8----------|
D|-------10-7-------10-7-----|
A|---------------------------|
E|-----------------------8-5-|

Pre-Chorus

G|----------------------------|
D|----------------------------|
A|-6-7-6-----6-7-6-----10~-7~-|
E|-------8-5-------8-5--------|

G|-8-9-8------8-9-8----------|
D|-------10-7-------10-7-----|
A|---------------------------|
E|-----------------------8-5-|

Outro x2

G|----------------------|-------------------|
D|----------------------|-------------------|
A|----------------------|-------------------|
E|-5-5--3/5--5--6-6-3-8-|-5-5--3/5--5-8-6-4-|

G|----------------------|---------------------|
D|----------------------|---------------------|
A|----------------------|---------------------|
E|-5-5--3/5--5--6-6-3-8-|-5--3/5'”5--4-x-6-x-8-|

Comment this song and these bass tabs

Do you have corrections, comments on the bass tabs, thoughts about the song or a message to the author? Write them below.