Log in

One click and you are in

Login with Facebook Login with Google

Why sign up and log in

Guitar Tabs Explorer
Korn bass tabs for Here to stay1

Bass tabs

5 string bass tuned down to A,D,G,C,F
"HERe TO STAY" Bass tabs
intro:repeat 7 times
F)------------------------------------------------
C)------------------------------------------------
G)------------------------------------------------
D)------------------------------------------------
A)0-1-031000-2-0-1-031000-2-----------------------

then move up to
F)------------------------------------------------
C)------------------------------------------------
G)------------------------------------------------
D)----------7----------6--------------------------
A)5-6-585555-5-6-585555---------------------------
repeat this 12 times

pre-chorus
F)------------------------------------------------
C)------------------------------------------------
G)------------------------------------------------
D)3-------------3---------------------------------
A)--2-02320220-2-2-2-02320220-2-------------------

chorus
F)------------------------------------------------
C)------------------------------------------------
G)------------------------------------------------
D)----4-2-3-1-----4-2-3-1-------------------------
A)0--1--------0--1--------------------------------
Bridge(middle of song)

F)------------------------------------------------
C)------------------------------------------------
G)------------------------------------------------
D)0--1-4-2-3-1--0--1-4-2-3-1----------------------
A)------------------------------------------------
***play this softly***

F)------------------------------------------------
C)------------------------------------------------
G)------------------------------------------------
D)------------------------------------------------
A)xxxxx----xxxxx-xxxx-xxxxxxxxxx-xxxxxxxxxxxxx-x-x

F)------------------------------------------------
C)------------------------------------------------
G)------------------------------------------------
D)------------------------------------------------
A)00-20-0-000-5^-00-20-000-5^---------------------

repeat second intro
then repeat pre chorus
then chorus
then intro but slap it instead of using fingers

outro
F)------------------------------------------------
C)------------------------------------------------
G)------------------------------------------------
D)------------------------------------------------
A)00-X0-0-000-00-X0-000---------------------------
repeat until end

This might be wrong, but its close.FIELDY RULES!

Other versions of Here To Stay1

Here to stayBass tabs

Almost there ...

Sign in to get your own page with links to favourite songs and more. You are just one click away...

Login with Facebook Login with Google