Guitar Tabs Explorer
Korn guitar tabs for Here to stay

Here To Stay tab


Be the first to rate

Here To Stay tab by Korn

Guitar tabs

Print

#-- File created with Instab - http://www.pconline.com/~smcarey/instab.html
#-----------------------------------------------------------------------------

#

Title: here to stay
d 1st        Drop the whole guitar to d
a 2nd         Then drop the lowest string
f 3rd            To C chord diagramCC.
c 4th
g 5th
c 6th
    This is all my work none of the following comes from any previous
        published version of this song's tab.    The base plays this first
part 4x w/ heavy distortion before the start

intro:
-|--------------------------------------------------------------|-------------

-|--------------------------------------------------------------|-------------

-|--------------------------------------------------------------|-------------

-|-----------------------------------------------------------4x-|-------------

-|-9--10--10-12-10-9-10-9-10----9--10--10-12-10-9-10-9-10-------|-------------

-|-9--10--10-12-10-9-10-9-10----9--10--10-12-10-9-10-9-10-------|-------------

          xxxxxxxxxxxxxxxxxx           xxxxxxxxxxxxxxxxxx

Verse:
-|---------------------------------------------------------------|------------

-|---------------------------------------------------------------|------------

-|---------------------------------------------------------------|------------

-|------------------------------------------------------------6x-|------------

-|-2--3--3-5-3-2-3-2-3------2--3--3-5-3-2-3-2-3------------------|------------

-|-2--3--3-5-3-2-3-2-3------2--3--3-5-3-2-3-2-3------------------|------------

         xxxxxxxxxxxxx            xxxxxxxxxxxxx


Pre-Chorus
-|-----------------------------------------------------------------------|----

-|-----------------------------------------------------------------------|----

-|-----------------------------------------------------------------------|----

-|-----------------------------------------------------------------------|----

-|-5--0-0-0-0-0-0-----5--0-0-0-0-0-0-----5--0-0-0-0-0-0---5--0-0-0-0-0-0-|----

-|-5--0-0-0-0-0-0-----5--0-0-0-0-0-0-----5--0-0-0-0-0-0---5--0-0-0-0-0-0-|----

      xxxxxxxxxxx        xxxxxxxxxxx        xxxxxxxxxxx      xxxxxxxxxxx


Chorus:
-|--------------------------------------------------------------------------|-

-|--------------------------------------------------------------------------|-

-|-4---7-------------4---7-------------4---7-------------4---7--------------|-

-|-4---7---5-0-2-1---4---7---5-0-2-1---4---7---5-0-2-1---4---7---5-0-2-1----|-

-|-2---5---5-0-2-1---2---5---5-0-2-1---2---5---5-0-2-1---2---5---5-0-2-1----|-

-|---------5-0-2-1-----------5-0-2-1-----------5-0-2-1-----------5-0-2-1----|-




2nd Verse:
-|---------------------------------------------------------------|------------

-|---------------------------------------------------------------|------------

-|----------------------------------------------------------4x---|------------

-|---------------------------------------------------------------|------------

-|-2--3--3-5-3-2-3-2-3-------2--3--3-5-3-2-3-2-3-----------------|------------

-|-2--3--3-5-3-2-3-2-3-------2--3--3-5-3-2-3-2-3-----------------|------------

         xxxxxxxxxxxxx             xxxxxxxxxxxxx


Pre-Chorus
-|--------------------------------------------------------------------------|-

-|--------------------------------------------------------------------------|-

-|--------------------------------------------------------------------------|-

-|--------------------------------------------------------------------------|-

-|-5--0-0-0-0-0-0-----5--0-0-0-0-0-0-----5--0-0-0-0-0-0----5--0-0-0-0-0-0---|-

-|-5--0-0-0-0-0-0-----5--0-0-0-0-0-0-----5--0-0-0-0-0-0----5--0-0-0-0-0-0---|-

      xxxxxxxxxxx        xxxxxxxxxxx        xxxxxxxxxxx       xxxxxxxxxxx


Chorus:
-|--------------------------------------------------------------------------|-

-|--------------------------------------------------------------------------|-

-|-4---7-------------4---7-------------4---7-------------4---7--------------|-

-|-4---7---5-0-2-1---4---7---5-0-2-1---4---7---5-0-2-1---4---7---5-0-2-1----|-

-|-2---5---5-0-2-1---2---5---5-0-2-1---2---5---5-0-2-1---2---5---5-0-2-1----|-

-|---------5-0-2-1-----------5-0-2-1-----------5-0-2-1-----------5-0-2-1----|-




Breakdown:
-|---------------------|------------------------|------------------------|----

-|---------------------|------------------------|------------------------|----

-|---------------------|------------------------|------------------------|----

-|-7-------------------|-------------------8x---|---------------------8x-|----

-|-7-------------------|-7-7--7--7-7-7----------|-7-7---7----7-7-7-------|----

-|-7-------------------|-7-7--7--7-7-7----------|-7-7---7----7-7-7-------|----

   hold four beats       very light w/ palm mute   very heavy w/ palm mute



-|----------------------------------------------------------------|-----------

-|----------------------------------------------------------------|-----------

-|----------------------------------------------------------------|-----------

-|----------------------------------------------------------1x----|-----------

-|-2--3--3-5-3-2-3-2-3-------2--3--3-5-3-2-3-2-3------------------|-----------

-|-2--3--3-5-3-2-3-2-3-------2--3--3-5-3-2-3-2-3------------------|-----------

         xxxxxxxxxxxxx             xxxxxxxxxxxxx


Pre-Chorus:
-|-------------------------------------------------------------------------|--

-|-------------------------------------------------------------------------|--

-|-------------------------------------------------------------------------|--

-|-------------------------------------------------------------------------|--

-|-5--0-0-0-0-0-0------5--0-0-0-0-0-0-----5--0-0-0-0-0-0-----5--0-0-0-0-0-0|--

-|-5--0-0-0-0-0-0------5--0-0-0-0-0-0-----5--0-0-0-0-0-0-----5--0-0-0-0-0-0|--

      xxxxxxxxxxx         xxxxxxxxxxx        xxxxxxxxxxx        xxxxxxxxxxx


Last Chorus:
-|--------------------------------------------------------------------------|-

-|--------------------------------------------------------------------------|-

-|-4---7-------------4---7-------------4---7-------------4---4--------------|-

-|-4---7---5-0-2-1---4---7---5-0-2-1---4---7---5-0-2-1---4---7---5-0-2-1----|-

-|-2---5---5-0-2-1---2---5---5-0-2-1---2---5---5-0-2-1---2---5---5-0-2-1----|-

-|---------5-0-2-1-----------5-0-2-1-----------5-0-2-1-----------5-0-2-1----|-




Outro:
-|------------------------------------------------------------|---------------

-|------------------------------------------------------------|---------------

-|------------------------------------------------------------|---------------

-|----------------------------------------------------------4x|---------------

-|-2--3--3-5-3-2-3-2-3------2--3--3-5-3-2-3-2-3---------------|---------------

-|-2--3--3-5-3-2-3-2-3------2--3--3-5-3-2-3-2-3---------------|---------------




-|----------------------------|-----------------------------------------------

-|----------------------------|-----------------------------------------------

-|----------------------------|-----------------------------------------------

-|----------------------8x----|-----------------------------------------------

-|-7-7---7---7-7-7------------|-----------------------------------------------

-|-7-7---7---7-7-7------------|-----------------------------------------------

   heavy w/ palm mute




Julius X Cavalli

Comment this song and these guitar tabs

Do you have corrections, comments on the guitar tabs, thoughts about the song or a message to the author? Write them below.