Guitar Tabs Explorer
Korn bass tabs for Here to stay

Here To Stay bass tab


Be the first to rate

Here To Stay bass tab by Korn

Bass tabs

Print

This song is definitly one of my favorite Korn songs.

5 string bass tuned down 1 step.


F----------------------
C----------------------
G----------------------
D----------------------
A-0--1--0-3--0-0-0--1-2

F------------------------------------------------
C------------------------------------------------
G------------------------------------------------
D-----------------------7----------------------6-
A-5--6--5-8--5-5-5--6-7----5-6--5-8--5-5-5-6-7---

pre choures

F---------------------------------------------
C---------------------------------------------
G---------------------------------------------
D--3-------------------------3----------------
A----3--3-2-3-3--3--2-3-3-3---3-3--2-3-3-2-3-3

choures

F------------------
C------------------
G------------------
D---------3----0---
A-0---3------3----1


          "..im here to stay...bring it down"
  s s s                       s s s s
F-------------------------------------
C-------------------------------------
G-------------------------------------
D-------------------------------------
A-0-0-x-----------------------x-x-x-x-


F-------------------------------------------
C-------------------------------------------
G-------------------------------------------
D-------------------------------------------
A-0-0--x-0--0-0-0-0--1^---0-0-x-0---0-0-0-1^

outro
  S S S S  S S S S      S S S S   S S S
F
C
G
D
A-0-0-X-0--0-0-0-0------0-0-X-0---0-0-0



Well, i think that is right. If I am not, bitch at me

Other versions of Here To Stay

Here to stay1Bass tabs

Comment this song and these bass tabs

Do you have corrections, comments on the bass tabs, thoughts about the song or a message to the author? Write them below.