Search tabs and chords

Search for song, artist or band

Log in

One click and you are in

Login with Facebook Login with Google

Why sign up and log in

Guitar Tabs Explorer
Korn guitar tabs for Haze

Guitar tabs

Intro:
A|---------------------|
E|-------/7------------|
B|---------------------|
G|---------------------|
D|---------------------|
A|---------------------|
E|-0--0------0-1-1-1-1-| X4

Verse:
A|-------------------------------------------------|
E|-------------------------------------------------|
B|-16-16-16-16-16-16-16-16-24-24-24-24-24-24-24-24-|
G|-------------------------------------------------|
D|-------------------------------------------------|
A|-------------------------------------------------|
E|-------------------------------------------------|

A|-------------------------------------------------|
E|-22-22-22-22-22-22-22-22-22-22-22-22-22-22-22-22-|
B|-------------------------------------------------|
G|-------------------------------------------------|
D|-------------------------------------------------|
A|-------------------------------------------------|
E|-------------------------------------------------|

A|-------------------------------------------------|
E|-------------------------------------------------|
B|-19-19-19-19-19-19-19-19-24-24-24-24-24-24-24-24-|
G|-------------------------------------------------|
D|-------------------------------------------------|
A|-------------------------------------------------|
E|-------------------------------------------------|

A|-------------------------------------------------|
E|-------------------------------------------------|
B|-20-20-20-20-20-20-20-20-20-20-20-20-20-20-20-20-|
G|-------------------------------------------------|
D|-------------------------------------------------|
A|-------------------------------------------------|
E|-------------------------------------------------|

Chorus:
A|---------------------|
E|-------/7------------|
B|---------------------|
G|---------------------|
D|---------------------|
A|---------------------|
E|-0--0------0-1-1-1-1-| X2

Verse 2:
A|---------------------------------|
E|---------------------------------|
B|---------------------------------|
G|---------------------------------|
D|---------------------------------|
A|---------------------------------|
E|-0-0-0-0-0-0-0-0-0-0-0-0-0-0-0-0-|

A|---------------------------------|
E|---------------------------------|
B|---------------------------------|
G|---------------------------------|
D|---------------------------------|
A|---------------------------------|
E|-3-3-3-3-3-3-3-3-3-3-3-3-3-3-3-3-|

A|---------------------------------|
E|---------------------------------|
B|---------------------------------|
G|---------------------------------|
D|---------------------------------|
A|---------------------------------|
E|-6-6-6-6-6-6-6-6-6-6-6-6-6-6-6-6-|

A|---------------------------------|-----|
E|---------------------------------|-----|
B|---------------------------------|-----|
G|---------------------------------|-----|
D|---------------------------------|-----|
A|---------------------------------|-----|
E|-5-5-5-5-5-5-5-5-5-5-5-5-5-5-5-5-|-0-0-|

Bridge:
A|-----|
E|-----|
B|-----|
G|-----|
D|-----|
A|-----|
E|-0-0-|

A|-----------------------------------------------------|
E|-------------15--15--15--15--15--14--14--14--14--14--|
B|-----------------------------------------------------|
G|---------9-------------------------------------------|
D|-----------------------------------------------------|
A|-----------------------------------------------------|
E|-0--0------------------------------------------------|

A|-----------------------------------------------------|
E|-------------15--15--15--15--15--14--14--14--14--14--|
B|-----------------------------------------------------|
G|---------9-------------------------------------------|
D|-----------------------------------------------------|
A|-----------------------------------------------------|
E|-0--0------------------------------------------------|

A|-----------------------------------------------------|
E|-------------15--15--15--15--15--14--14--14--14--14--|
B|-----------------------------------------------------|
G|---------9-------------------------------------------|
D|-----------------------------------------------------|
A|-----------------------------------------------------|
E|-0--0------------------------------------------------|

A|-----------------------------------------------------|
E|-------------15--15--15--15--15--11--11--11--11--11--|
B|-----------------------------------------------------|
G|---------9-------------------------------------------|
D|-----------------------------------------------------|
A|-----------------------------------------------------|
E|-0--0------------------------------------------------|

A|-----------------------------------------------------|
E|-------------15--15--15--15--15--14--14--14--14--14--|
B|-----------------------------------------------------|
G|---------9-------------------------------------------|
D|-----------------------------------------------------|
A|-----------------------------------------------------|
E|-0--0------------------------------------------------|

A|-----------------------------------------------------|
E|-------------15--15--15--15--15--14--14--14--14--14--|
C|-----------------------------------------------------|
G|---------9-------------------------------------------|
D|-----------------------------------------------------|
A|-----------------------------------------------------|
E|-0--0------------------------------------------------|

A|-----------------------------------------------------|-----|
E|-------------15--15--15--15--15--14--14--14--14--14--|-----|
C|-----------------------------------------------------|-----|
G|---------9-------------------------------------------|-----|
D|-----------------------------------------------------|-----|
A|-----------------------------------------------------|-----|
E|-0--0------------------------------------------------|-0-0-|

Solo:
A|---------------------|
E|-------/7------------|
C|---------------------|
G|---------------------|
D|---------------------|
A|---------------------|
E|-0--0------0-1-1-1-1-|

A|-----|
E|-----|
C|-----|
G|-----|
D|-----|
A|-----|
E|-0-0-| x8

Chorus:
A|-------/7------------|
E|---------------------|
C|---------------------|
G|---------------------|
D|---------------------|
A|---------------------|
E|-0--0------0-1-1-1-1-| X4

Outro:
A|-------/7------------|
E|---------------------|
C|---------------------|
G|---------------------|
D|---------------------|
A|---------------------|
E|-0--0------0-1-1-1-1-|

A|-----|
E|-----|
C|-----|
G|-----|
D|-----|
A|-----|

Almost there ...

Sign in to get your own page with links to favourite songs and more. You are just one click away...

Login with Facebook Login with Google