Guitar Tabs Explorer
Korn guitar tabs for Hating

Hating tab


Be the first to rate

Hating tab by Korn

Guitar tabs

Print
Album: Untouchables

Tuning: Standard (6 Strings)


[Intro and Verse]

e|--------------------------------------------|
B|--------------------------------------------|
G|---------------0---0------------------------|
D|-0-0-2-2-------------3-3-2-2----------------|
A|---------3-3-3---------------3-3------------|
E|--------------------------------------------|



[Pre-Chorus]

e|---5-5-5-5-5-5-------------5-5-5-5-5-5-----------5-5-5-5-5-5---------5-5-5-5-5-5--|
B|----------------------------------------------------------------------------------|
G|----------------------------------------------------------------------------------|
D|----------------------------------------------------------------------------------|
A|----------------------------------------------------------------------------------|
E|----------------------------------------------------------------------------------|(x4)


[Chorus]

e|----------------------------|------------------------------|
B|----------------------------|------------------------------|
G|--7--9--5-----12----10-9--5-|--7--9--5-----12----10-9--12--|
D|----------------------------|------------------------------|
A|--5--7--3-----10----8--7--3-|--5--7--3-----10----8--7--10--|
E|----------------------------|------------------------------|(x4)


[Outro 1.1]

e|---------------|      |----------|
B|---------------|      |----------|
G|---------------|      |----------|
D|--0-0-0-0-0-0--|      |---0----0-|   repeat all (x2)
A|--5-5-5-5-5-5--|      |---6----6-|
E|--5-5-5-5-5-5--|(x3)  |---6----6-|


[Outro 1.2]

e|-------------------------------------------|
B|-------6---------6--------6----------------|
G|-------6---------6--------6------------4---|
D|--0---------0--------5-----------4--0--4---|
A|--5---------6--------5-----------4--5--4---|
E|--5---------6--------3-----------2--5------|(x2)


Song Structure:

Intro x8
Verse x8
Pre Chorus x4
Chorus x4
Intro x1
Verse x8
Pre Chorus x4
Chorus x4
Outro 1.1 x2
Outro 1.2 x4
Pre Chorus x4
Chorus x4

Comment this song and these guitar tabs

Do you have corrections, comments on the guitar tabs, thoughts about the song or a message to the author? Write them below.