Guitar Tabs Explorer
Korn guitar tabs for Got the life

Got The Life tab


Be the first to rate

Got The Life tab by Korn

Guitar tabs with lyrics

Print

Album: "Follow The Leader"

This song isn't that difficult.  Only power chords for
the rhythm guitar
and and couple of tiny, creapy notes with light effect for
the leading
guitar. The bass is quite always in slap; but everbody
knows it already ;-)

Note: I only owe a 6-strings guitar, so if u really wanna
sound like KoRn,
just play it in dropped-D chord diagramDD.

Rhythm 1

e|--------------------------------------------------------|
B|--------------------------------------------------------|
G|------------------------------4-------------------------|
D|--7-----------5---------1-----4------7------------------|
A|--7-----------5---------1-----2------7------------------|
D|--7-----------5---------1------------7------------------|

Lead 1 (same time as Rhythm 1)

e|----------------------------------------7-7-8--------|
B|-----------------------------------------------------|
G|-9-9-9-9-9-9-9-9-9-9-9--7-7-7--10-10-10-------9------|
D|-----------------------------------------------------|
A|-----------------------------------------------------|
D|-----------------------------------------------------|

e|----------------------------------------8--8---------|
B|-----------------------------------------------------|
G|-9-9-9-9-9-9-9-9-9-9-9--7-7-7--10-10-10-------9------|
D|-----------------------------------------------------|
A|-----------------------------------------------------|
D|-----------------------------------------------------|

During Verse (I think he use some harmonizer or some
thing):

e|-12--13---17----12--10---17--------------------------|
B|-----------------------------------------------------|
G|-----------------------------------------------------|
D|-----------------------------------------------------|
A|-----------------------------------------------------|
D|-----------------------------------------------------|

Another tricky sound:

e|-----------------------------------------------------|
B|----------8------------------------------------------|
G|-6--9--7-----6-----6---9-----7-----------------------|
D|-----------------------------------------------------|
A|-----------------------------------------------------|
D|-----------------------------------------------------|

And one other:

e|-----------------------------------------------------|
B|--10 \ sl \ 11 \ sl \ 10-----------------------------|
G|-----------------------------------------------------|
D|-----------------------------------------------------|
A|-----------------------------------------------------|
D|-----------------------------------------------------|

For the end : "Got the Life, go the life, got the life
.."

e|-----7-7-7-7-7---7-7-7-7-7---8-8-8-8-8---------------|
B|------------------------------------------9-9-9-9-9--|
G|-----------------------------------------------------|
D|-----------------------------------------------------|
A|-----------------------------------------------------|
D|-----------------------------------------------------|

Comment this song and these guitar tabs

Do you have corrections, comments on the guitar tabs, thoughts about the song or a message to the author? Write them below.