Log in

One click and you are in

Login with Facebook Login with Google

Why sign up and log in

Guitar Tabs Explorer
Korn bass tabs for Got the life

Bass tabs

Intro
F|-------------------|
C|-------------------|
G|-------------------|
D|-------------5-----|
A|-0-00-00-000---6-4-|

Pre-verse
F|------------------|
C|------------------|
G|-------1/3--------|
D|------------------|x3
A|-1-000-----000-10-|

F|------------|
C|------------|
G|-------1/3--|
D|------------|x1
A|-1-000------|


Verse 1
F|------------------|
C|------------------|
G|-------1/3--------|
D|------------------|
A|-1-000-----000-10-|

Stop playing while the guitar interlude


Verse 2
F|------------------|
C|------------------|
G|-------1/3--------|
D|------------------|x7
A|-1-000-----000-10-|

F|------------------|
C|------------------|
G|-------1/3--------|
D|------------------|x1
A|-1-000-----000000-|

Chorus: Same as Intro


Bridge 1
F|-------------------|
C|-------------------|
G|-------------------|
D|----5-----7~-5-----|
A|-0~---6-4------6-4-|


Bridge 2
F|------------------|
C|------------------|
G|-------1/3--------|x7
D|------------------|
A|-1-000-----000-10-|

F|------------------|
C|------------------|
G|-------1/3--------|
D|------------------|x1
A|-1-000-----000000-|


Outro
F|----------|
C|----------|
G|----------|x4
D|----5-----|
A|-0~---6-4-|


F|------|
C|------|
G|------|
D|------|
A|-0~~~~|
ⓘ Bass guitar tab for 'Got The Life' by Korn, a nu metal band formed in 1993 from Bakersfield, California, USA. Korn is known for their angry metal music.

Almost there ...

Sign in to get your own page with links to favourite songs and more. You are just one click away...

Login with Facebook Login with Google