Guitar Tabs Explorer
Korn guitar tabs for Good god

Good God tab


Be the first to rate

Good God tab by Korn

Guitar tabs with lyrics

Print

From A_Cow_2@compuserve.com Wed Apr  9 12:43:19 1997

Good God by Korn (Life is Peachy)
Transcribed by Marcus Holmlund (A_Cow_2@compuserve.com)

If you want to play along with the record tune down a whole step and use drop C chord diagramCC tuning (CGCFAD).  Usually I just drop D chord diagramDD (DADGBE), it works fine.

This whole song is heavily distorted, surprise, considering it's by Korn.

Riff 1
B||------16------16--------16------16---------16-----16--------15-----16
B||---------------------------------------------------------------------
F|| chord diagramF||F||---------------------------------------------------------------------
C|| chord diagramC||C||---------------------------------------------------------------------
B||--5-4----4-4----5-4-5-4----4-4----5-4-5-4----4-4----5-4-5-4----4-4---
C|| chord diagramC||C||--5-4----4-4----5-4-5-4----4-4----5-4-5-4----4-4----5-4-5-4----4-4---

B||----------16-----16---------16-----16---------16-----16---------16---
B||---------------------------------------------------------------------
F|| chord diagramF||F||---------------------------------------------------------------------
C|| chord diagramC||C||---------------------------------------------------------------------
B||--5-4-5-4----4-4----5-4-5-4----4-4----5-4-5-4----4-4----5-4-5-4------
C|| chord diagramC||C||--5-4-5-4----4-4----5-4-5-4----4-4----5-4-5-4----4-4----5-4-5-4------

B||------16------||
B||--------------||
F|| chord diagramF||F||--------------||
C|| chord diagramC||C||--------------||
B||--4-4----5-4--||
C|| chord diagramC||C||--4-4----5-4--||


Riff 2

P.M.----      P.M.       P.M.     P.M.

B||-------------------------------------------||
B||---------7-------7-----------7------7------||
F|| chord diagramF||F||-------5-----------7-------5----------7----||
C|| chord diagramC||C||----------------------------------------7--||
B||--5-4------5-4--------5-4------5-4---------||
C|| chord diagramC||C||--5-4------5-4--------5-4------5-4---------||

         N.H.       N.H       N.H      N.H.-
                    (3x)


Riff 3
B||------16------16--------16------16---------16-----16--------16-----16
B||---------------------------------------------------------------------
F|| chord diagramF||F||---------------------------------------------------------------------
C|| chord diagramC||C||---------------------------------------------------------------------
B||--5-4----4-4----5-4-5-4----4-4----5-4-5-4----4-4----5-4-5-4----4-4---
C|| chord diagramC||C||--5-4----4-4----5-4-5-4----4-4----5-4-5-4----4-4----5-4-5-4----4-4---

B||-------||
B||-------||
F|| chord diagramF||F||-------||
C|| chord diagramC||C||-------||
B||--5-4--||
C|| chord diagramC||C||--5-4--||


Riff 4A (guitar 1, Head)
B||-----------------||
B||-----------------||
F|| chord diagramF||F||-----------------||
C|| chord diagramC||C||-----------------||
B||--9----7--6-5-4--||
C|| chord diagramC||C||--9----7--6-5-4--||
        (4X)

Riff 4B (guitar 2, Munky)
B||-----------||------------------------------||
B||-----------||------------------------------||
F|| chord diagramF||F||-----------||--15---12-12---12/15---15/17--||
C|| chord diagramC||C||--7^(1/2)--||------------------------------||
B||-----------||------------------------------||
C|| chord diagramC||C||-----------||------------------------------||
      (3X)


Riff 5
B||--------------------||
B||--------------------||
F|| chord diagramF||F||--------------------||
C|| chord diagramC||C||--------------------||
B||--10-9----7--6-5-4--||
C|| chord diagramC||C||--10-9----7--6-5-4--||
           (4X)


Riff 6
B||--------------||--------------------||-------||
B||--------------||--------------------||-------||
F|| chord diagramF||F||--------------||--------------------||-------||
C|| chord diagramC||C||--------------||--------------------||-------||
B||--5-4--44-44--||--5-4-5-4-X--44-44--||--5-4--||
C|| chord diagramC||C||--5-4--44-44--||--5-4-5-4-X--44-44--||--5-4--||
                          (7X)


Riff 7
B||--------------------||-------------||
B||--------------------||-------------||
F|| chord diagramF||F||--------------------||-------------||
C|| chord diagramC||C||--------------------||-------------||
B||--10-9----7--6-5-4--||--10-9----7--||
C|| chord diagramC||C||--10-9----7--6-5-4--||--10-9----7--||
           (3X)

Progression:

Drum Intro
Riff 1
Riff 2
Riff 3
Riff 4A + Riff 4B This is the only part in the whole song where Munky 	and Headly play different parts.  If you're alone just play Head's 	part.
Riff 2
Riff 3
Riff 4A + 4B
Riff 5
Drums & Bass (Guitar just fucks off for a while)
Riff 6
Riff 4A + 4B
Riff 7


This is one of the most bad-ass songs on the record.  Unless you have one of those expensive-ass 7-strings it won't sound just right, but this is close enough.  You need to use some type of chorus effect for Munky's part on the "sea of life" part to get it to sound right, but even reverb will help.  Send me any requests.

-Marcus (A_Cow_2@compuserve.com)

Comment this song and these guitar tabs

Do you have corrections, comments on the guitar tabs, thoughts about the song or a message to the author? Write them below.