Guitar Tabs Explorer
Korn bass tabs for Getting off

Getting Off bass tab


Be the first to rate

Getting Off bass tab by Korn

Bass tabs

Print

[Intro] note '“ those are 10's not 1's and 2's
|-------------------------------------------------|
|-9999-9999-10101010-10101010-6666-6666-5555-5555-|
|-------------------------------------------------|
|-------------------------------------------------|

[Pre-Verse] x4
|------------|
|------------|
|------------|
|-00-0--0000-|

[Verse] x4
|----------------|
|----------------|
|-----7-7'”77/6/5-|
|-000------------|

[Pre-Chorus]
|------------------------------|
|------------------------------|
|-7~-7-87-7-87-7-87--7-87-87-8-|
|------------------------------|

|------------------------------|
|------------------------------|
|-7~-7-87-7-87-7-87--7-8-10-87-|
|------------------------------|

|---------------------------|----------------|
|---------------------------|----------------|
|-10~~-12~~-7~~--7/8/1087-|-10~~-12~~--7~~-|
|---------------------------|----------------|

[Chorus] x8
|---------------|
|---------------|
|-3-3-33-333----|
|-------------3-|

[Pre-Verse] x4
|------------|
|------------|
|------------|
|-00-0--0000-|

[Verse] x4
|----------------|
|----------------|
|-----7-7'”77/6/5-|
|-000------------|

[Pre-Chorus]
|------------------------------|
|------------------------------|
|-7~-7-87-7-87-7-87--7-87-87-8-|
|------------------------------|

|------------------------------|
|------------------------------|
|-7~-7-87-7-87-7-87--7-8-10-87-|
|------------------------------|

|---------------------------|----------------|
|---------------------------|----------------|
|-10~~-12~~-7~~--7/8/1087-|-10~~-12~~--7~~-|
|---------------------------|----------------|

[Chorus] x8
|---------------|
|---------------|
|-3-3-33-333----|
|-------------3-|

[Bridge pt.1] x4
|-------------------|
|-------------------|
|-------------------|
|-2~-454~-7777-88-6-|

[Bridge pt.2] x6
|-----------|-r-e-s-t-|-----------|
|-----------|-r-e-s-t-|-----------|
|-----------|-r-e-s-t-|-----------|
|-333-44-55-|-r-e-s-t-|-333-44-55-|

[Bridge pt.3]
|------------------|
|------------------|
|-----7-7-77/6/5-5-|
|-000--------------|

[Bridge pt.4]
|---------------------------|---------------|
|---------------------------|---------------|
|-10~~-12~~-7~~--7/8/1087-|-10~~-12~~-7~~-|
|---------------------------|---------------|

[Outro] x8
|---------------|
|---------------|
|-3-3-33-333----|
|-------------3-|

Comment this song and these bass tabs

Do you have corrections, comments on the bass tabs, thoughts about the song or a message to the author? Write them below.