Search tabs and chords

Search for song, artist or band

Log in

One click and you are in

Login with Facebook Login with Google

Why sign up and log in

Guitar Tabs Explorer
Korn guitar tabs for Fear is a place to live

Guitar tabs

Tabbed By: FRr3AkOnALEaSh (smokin_05@hotmail.com)
Tuning: 7 String Tuned Low to High (A chord diagramA majorA A chord diagramD MajorD A chord diagramG MajorG A chord diagramC majorC A chord diagramFF a d)

Vocal: Jonathan Houseman Davis 'Hiv'
Guitar: James Randal Shaffer 'Munky'
Bass: Reginald Arvizu 'Fieldy
Drums: Ray Luzier

Riff 1 (Intro)
D|-------|-----------|------------|
A|-------|-----------|------------|
F|-------|-----------|------------|
C|-------|-----------|------------|
G|-------|-----------|------------|
D|-------|-----------|-------2~---|
A|--0-0--|--00000-0--|--0000-0~0--|

Riff 2 (Verse)
D|-------------------------|
A|-------------------------|
F|-------------------------|
C|-------------------------|
G|-------------------------|
D|-------------------------|
A|--3-3-3-0-3-3/5-5-5\3-0--|

Riff 3 (Verse)
D|-------------------------|
A|-------------------------|
F|-------------------------|
C|-------------------------|
G|-------------------------|
D|-------------------------|
A|--3-3-3-0-3/5-6-6-6\5-0--|

Riff 4 (Chorus/Outro)
D|-----------------------|
A|-----------------------|
F|-----------------------|
C|-----------------------|
G|--9~--9----------------|
D|--7~--7-9~--9-7~--7-3~-|
A|--------7~--7-5~--5-1~-|

Riff 5 (Pre-Verse/Fill)
D|-------------|
A|-------------|
F|-------------|
C|-------------|
G|-------------|
D|-------------|
A|--0-0-00000--|

Riff 6 (Breakdown/Outro)
D|--------------|--------------|
A|--------------|--------------|
F|--1010101010--|--1616161616--|
C|--xxxxxxxxxx--|--xxxxxxxxxx--|
G|---8-8-8-8-8--|--1414141414--|
D|--------------|--------------|
A|--------------|--------------|

Riff 7 (Breakdown)
D|--------------------------------------------------------------------|
A|--------------------------------------------------------------------|
F|--1919191919191919191919192121212118181818181818181818181818181818--|
C|--------------------------------------------------------------------|
G|--------------------------------------------------------------------|
D|--------------------------------------------------------------------|
A|--------------------------------------------------------------------|

Riff 8 (Breakdown)
D|--------------------------------------------------------------------|
A|--------------------------------------------------------------------|
F|--1616161616161616161616161616161612121212121212121212121211111111--|
C|--------------------------------------------------------------------|
G|--------------------------------------------------------------------|
D|--------------------------------------------------------------------|
A|--------------------------------------------------------------------|

NOTE: For the Verse, remember to stop after each note as played in the song.

Almost there ...

Sign in to get your own page with links to favourite songs and more. You are just one click away...

Login with Facebook Login with Google