Search tabs and chords

Search for song, artist or band

Log in

One click and you are in

Login with Facebook Login with Google

Why sign up and log in

Guitar Tabs Explorer
Korn guitar tabs for Falling away from me

Guitar tabs

Album: Issues

Tuning: 7 string: down one whole step:
ADGCFad
Intro-guitar1 x2  (Clean)
d|---------15--14-------------14---|------15--14-------------14-----|
a|---17-------------15-------------|-17------------15------------14-|
F|-----------------------16--------|--------------------16----------|
C|---------------------------------|--------------------------------|
G|---------------------------------|--------------------------------|
D|---------------------------------|--------------------------------|
A|---------------------------------|--------------------------------|
Heavy Intro-guitar1 x4 (W/dist)
d|------------------------------|-----------------------------------|
a|------------------------------|-----------------------------------|
F|------------------------------|-----------------------------------|
C|-3-----------3-----3----------|-3-----------3-----3---------------|
G|-3-----------3-----3----------|-3-----------3-----3---------------|
D|-1-----------1-----1----------|-1-----------1-----1---------------|
A|-----0---0------0-----0-----0-|-----0---0------0-----0-----0------|
Heavy Intro-guitar2 x4 (W/dist)
d|------------------------------|-----------------------------------|
a|-5-----------5-----5----------|-5-----------5-----5---------------|
F|-x-----------x-----x----------|-x-----------x-----x---------------|
C|-3-----------3-----3----------|-3-----------3-----3---------------|
G|------------------------------|-----------------------------------|
D|------------------------------|-----------------------------------|
A|------------------------------|-----------------------------------|
Verse-guitar1 plays intro x2: guitar2 plays:  (W/tremolo)
d|------------------------------|-----------------------------------|
a|------------------------------|-11-(11)-(11)-(11)-(11)-(11)-(11)--|
F|------------------------------|-----------------------------------|
C|------------------------------|---bend-1/2-step-&-release---------|
G|------------------------------|-----------------------------------|
D|------------------------------|-----------------------------------|
A|------------------------------|-----------------------------------|
Chorus-guitar1 x2    (W/dist)
d|--------------------------|---------------------------------------|
a|--------------------------|--------------hold-all-chords----------|
F|--------------------------|---------------------------------------|
C|----4---------------------|-----4--------------33-----------------|
G|-2--4----5---------33-----|--2--4----5---------33-end-chorus-on-2-|
D|-2--2----5---------33-----|--2--2----5---------11---------------2-|
A|-0-------3---------11-----|--0-------3--------------------------0-|
Chorus-guitar2 x4   (W/dist)
d|--------------------------|---------------------------------------|
a|--------------------------|---------------------------------------|
F|--3--------(3)------------|--3-------------------(3)--------------|
C|--------------------------|---------------------------------------|
G|-bend-1/2-step------------|--bend-1/2-step------------------------|
D|--------------------------|---------------------------------------|
A|--------------------------|---------------------------------------|

Interlude1: same as verse for both guitars
Then Chorus.



Bridge-guitar2 x6  (W/dist)  guitar1 is silent during bridge
d|--------------------------|---------------------------------------|
a|--------------------------|---------------------------------------|
F|--3--------(3)------------|--3-------------------(3)--------------|
C|--------------------------|---------------------------------------|
G|-bend-1/2-step------------|--bend-1/2-step------------------------|
D|--------------------------|---------------------------------------|
A|--------------------------|---------------------------------------|

Interlude2: guitar1 plays intro x2
Guitar2 Plays Bridge x4 but volume is lower

Heavy Intro Riff x4 then:
Chorus x2

Guitar1 ends on:
d|--------------------------|
a|--------------------------|
F|--------------------------|
C|--------------------------|
G|--2-----------------------|
D|--2-----------------------|
A|--0-----------------------|
Guitar2 plays:       Till fade.
d|--------------------------|---------------------------------------|
a|--------------------------|---------------------------------------|
F|--3--------(3)------------|--3-------------------(3)--------------|
C|--------------------------|---------------------------------------|
G|-bend-1/2-step------------|--bend-1/2-step------------------------|
D|--------------------------|---------------------------------------|
A|--------------------------|---------------------------------------|

Other versions of Falling Away From Me

Falling away from meChords

Almost there ...

Sign in to get your own page with links to favourite songs and more. You are just one click away...

Login with Facebook Login with Google