Guitar Tabs Explorer
Korn guitar tabs for Falling away from me

Falling Away From Me tab


4 / 5 [2 votes]

Falling Away From Me tab by Korn

Guitar tabs

Print

Album: Issues

Tuning: 7 string: down one whole step:
ADGCFad
Intro-guitar1 x2  (Clean)
d|---------15--14-------------14---|------15--14-------------14-----|
a|---17-------------15-------------|-17------------15------------14-|
F| chord diagramF|F|-----------------------16--------|--------------------16----------|
C| chord diagramC|C|---------------------------------|--------------------------------|
G|---------------------------------|--------------------------------|
D|---------------------------------|--------------------------------|
A|---------------------------------|--------------------------------|
Heavy Intro-guitar1 x4 (W/dist)
d|------------------------------|-----------------------------------|
a|------------------------------|-----------------------------------|
F| chord diagramF|F|------------------------------|-----------------------------------|
C| chord diagramC|C|-3-----------3-----3----------|-3-----------3-----3---------------|
G|-3-----------3-----3----------|-3-----------3-----3---------------|
D|-1-----------1-----1----------|-1-----------1-----1---------------|
A|-----0---0------0-----0-----0-|-----0---0------0-----0-----0------|
Heavy Intro-guitar2 x4 (W/dist)
d|------------------------------|-----------------------------------|
a|-5-----------5-----5----------|-5-----------5-----5---------------|
F| chord diagramF|F|-x-----------x-----x----------|-x-----------x-----x---------------|
C| chord diagramC|C|-3-----------3-----3----------|-3-----------3-----3---------------|
G|------------------------------|-----------------------------------|
D|------------------------------|-----------------------------------|
A|------------------------------|-----------------------------------|
Verse-guitar1 plays intro x2: guitar2 plays:  (W/tremolo)
d|------------------------------|-----------------------------------|
a|------------------------------|-11-(11)-(11)-(11)-(11)-(11)-(11)--|
F| chord diagramF|F|------------------------------|-----------------------------------|
C| chord diagramC|C|------------------------------|---bend-1/2-step-&-release---------|
G|------------------------------|-----------------------------------|
D|------------------------------|-----------------------------------|
A|------------------------------|-----------------------------------|
Chorus-guitar1 x2    (W/dist)
d|--------------------------|---------------------------------------|
a|--------------------------|--------------hold-all-chords----------|
F| chord diagramF|F|--------------------------|---------------------------------------|
C| chord diagramC|C|----4---------------------|-----4--------------33-----------------|
G|-2--4----5---------33-----|--2--4----5---------33-end-chorus-on-2-|
D|-2--2----5---------33-----|--2--2----5---------11---------------2-|
A|-0-------3---------11-----|--0-------3--------------------------0-|
Chorus-guitar2 x4   (W/dist)
d|--------------------------|---------------------------------------|
a|--------------------------|---------------------------------------|
F| chord diagramF|F|--3--------(3)------------|--3-------------------(3)--------------|
C| chord diagramC|C|--------------------------|---------------------------------------|
G|-bend-1/2-step------------|--bend-1/2-step------------------------|
D|--------------------------|---------------------------------------|
A|--------------------------|---------------------------------------|

Interlude1: same as verse for both guitars
Then Chorus.




Bridge-guitar2 x6  (W/dist)  guitar1 is silent during bridge
d|--------------------------|---------------------------------------|
a|--------------------------|---------------------------------------|
F| chord diagramF|F|--3--------(3)------------|--3-------------------(3)--------------|
C| chord diagramC|C|--------------------------|---------------------------------------|
G|-bend-1/2-step------------|--bend-1/2-step------------------------|
D|--------------------------|---------------------------------------|
A|--------------------------|---------------------------------------|

Interlude2: guitar1 plays intro x2
Guitar2 Plays Bridge x4 but volume is lower

Heavy Intro Riff x4 then:
Chorus x2

Guitar1 ends on:
d|--------------------------|
a|--------------------------|
F| chord diagramF|F|--------------------------|
C| chord diagramC|C|--------------------------|
G|--2-----------------------|
D|--2-----------------------|
A|--0-----------------------|
Guitar2 plays:       Till fade.
d|--------------------------|---------------------------------------|
a|--------------------------|---------------------------------------|
F| chord diagramF|F|--3--------(3)------------|--3-------------------(3)--------------|
C| chord diagramC|C|--------------------------|---------------------------------------|
G|-bend-1/2-step------------|--bend-1/2-step------------------------|
D|--------------------------|---------------------------------------|
A|--------------------------|---------------------------------------|

Other versions of Falling Away From Me

Falling away from meChords

Comment this song and these guitar tabs

Do you have corrections, comments on the guitar tabs, thoughts about the song or a message to the author? Write them below.