Guitar Tabs Explorer
Korn bass tabs for Falling away from me

Falling Away From Me bass tab


Be the first to rate

Falling Away From Me bass tab by Korn

Bass tabs

Print

Korn
Falling Away From Me
Tuning: A,D,(G,C) (Optional, not necessary)

Intro (Main Riff)
C|----------------|
G|----------------|
D|----------------|
A|-0h6-00h60h6----| x 8 (Listen to work out the pattern)
   S S S  SS S

Verse (Fuzz distortion)
C|----------------------|
G|----------------------|
D|----------------------|
A|-1p0--1p0--1p0--1p02--| x 4

Main Riff
C|----------------|
G|----------------|
D|----------------|
A|-0h6-00h60h6----|  x 4
   S S S  SS S

Verse
C|----------------------|
G|----------------------|
D|----------------------|
A|-1p0--1p0--1p0--1p02--| x 4

Chorus
C|------------------------|
G|------------------------|
D|---2-----------2--------|
A|-0---3-221---0---3-33/7-| x 2

Verse II
C|-----------------|
G|-----------------|
D|-----------------|
A|-0/1-0/1-0/1-0/1-| x 6

Chorus
C|------------------------|
G|------------------------|
D|---2-----------2--------|
A|-0---3-221---0---3-33/7-| x 2

Bridge
C|-------|
G|-------|
D|-------|
A|-0~----| Ring for a lot

(This bit is kinda weird, there's still the ringing from before, but I play this: )
C|----------|
G|----------|
D|-750-7~-5~|
A|----------| x 2

C|------------------------------------|
G|------------------------------------|
D|---2--------2---------2---2---------|
A|-0---3--2-0--------3----0---3--2-0~-| x 2

Main Riff
C|----------------|
G|----------------|
D|----------------|
A|-0h6-00h60h6----|  x 8
   S S S  SS S

Chorus
C|------------------------|
G|------------------------|
D|---2-----------2--------|
A|-0---3-221---0---3-33/7-| x 4


Outro
C|----|
G|----|
D|----|
A|-0~-| Let it ring

Comment this song and these bass tabs

Do you have corrections, comments on the bass tabs, thoughts about the song or a message to the author? Write them below.