Guitar Tabs Explorer
Korn guitar tabs for Faget

Faget tab


Be the first to rate

Faget tab by Korn

Guitar tabs with lyrics

Print

Faget-KoRn
Transcribed by James Albers

Riff 1-Gtr1
d||-------------------------||
a||-------------------------||
F|| chord diagramF||F||-------------------------||
C|| chord diagramC||C||------------------16-16--||
B||------------------15-15--||
B||-------7----------14-14--||
B||--0-0--0--00-00-0-13-13--||

Riff 2-Gtr1
d||-------------------------||
a||-------------------------||
F|| chord diagramF||F||-------------------------||
C|| chord diagramC||C||------------------16-16--||
B||------------------15-15--||
B||------------------14-14--||
B||--0-00-0--00-0-00--------||

End of Riff 2
d||-------------------------||
a||-------------------------||
F|| chord diagramF||F||-------------------------||
C|| chord diagramC||C||-------------------------||
B||-------------------------||
B||-------------------------||
B||--0-00-0--00-0-00--------||

Fill 1-Gtr2
d||-----------------||
a||-----------------||       The F# chord diagramF#F# note (9th fret on A chord diagramAA) may be incorrect
F|| chord diagramF||F||-----------------||	     but I can't figure that out so that's my
C|| chord diagramC||C||-----------------||	     guess.  Same applies for the next riff.
B||-----------------||
B||--7/8---7/8------||
B||------9-----8~~--||

Riff 3
d||-----------------------------------------------------||
a||-----------------------------------------------------||
F|| chord diagramF||F||-----------------------------------------------------||
C|| chord diagramC||C||------------------16-16------------------------------||
B||------------------15-15------------------------------||
B||-------7----------14-14---------7-----7/8---7/8------||
B||--0-0--0--00-00-0-13-13----0-0--0--00-----9-----8~~--||

Riff 4a(Gtr1-Brian)
d||-----------------------||
a||-----------------------||
F|| chord diagramF||F||-----------------------||
C|| chord diagramC||C||-----------------------||
B||-----------------------||
B||-----------------8888--||
B||--0-0--0--00-00-0------||

Riff 4b(Gtr2-Munkey)
			      1.........   2............
d||-------------------------7------------||--------0----||
a||--13----11------\4---------------6----||------0---2--||
F|| chord diagramF||F||----------------------7-------4-------||----10-------||
C|| chord diagramC||C||--------------------------------------||---9---------||
B||--------------------------------------||-------------||
B||--------------------------------------||-------------||
B||--------------------------------------||-------------||

Riff 5
d||--------------------------||
a||--------------------------||
F|| chord diagramF||F||--------------------------||
C|| chord diagramC||C||-------------------16-16--||
B||-------------------15-15--||
B||--7----7---7---7---14-14--||
B||--0-00-0-0-0-0-0-0-13-13--||

Riff 6
d||-------------------||
a||-------------------||  	Gtr 2 scrapes the strings-from soft to loud
F|| chord diagramF||F||-------------------||
C|| chord diagramC||C||-------------------||
B||-------------------||
B||------7-----8--8---||
B||--0000---000-00----||

Riff 7
d||-------------------||
a||-------------------||
F|| chord diagramF||F||-------------------||
C|| chord diagramC||C||-------------------||
B||------9-----10-10--||
B||------7-----8--8---||
B||--0000---000-00----||

Riff 8a
d||--------------------||
a||--------------------||
F|| chord diagramF||F||--------------------||
C|| chord diagramC||C||--------------------||
B||------4------4-5-4--||
B||--2---2-3----2-3-2--||
B||--0-----1-----------||

   intro to riff 8b          Riff 8b
d||-------------------------||----------------||
a||--12--13--12--15--12--8--||--12-13-12\(8)--|| 	Repeat this last
F|| chord diagramF||F||-------------------------||----------------||	section--tremolo
C|| chord diagramC||C||-------------------------||----------------||	picking sounds best.
B||-------------------------||----------------||
B||-------------------------||----------------||
B||-------------------------||----------------||



Note: Unfortunately in this song you need a seven string or two
guitarist-one tuned (ADGCea) and another (DGCFad)--to play this song.
As for the lyrics,  think most of it is correct, but I have no idea what
he is saying after the "...suck my dick and like it..." part (I just call
it vocal adlib). I don't remember the order of the riffs after each
section, but it shouldn't be too difficult to figure it out.

Laters--
James <jalbers@ucsd.edu>



THI IS A chord diagramAA COOL SONG. I JUST PICKED IT UP. I TRIED TO FIGURE OUT THE LYRICS
BUT THEY ARE TO GRUNTY TO TELL.

BAND:KORN
SONG:FAGET
ALBUM:KORN

TUNE DOWN ALL STRINGS 3 1/2 STEPS

MAIN RIFF

------------------------------------------------------
------------------------------------------------------
---------------------10-10----------------------------
---------------------9--9-----------------------------
---------7-----------8--8-----------7-----7-8-7-5-7---
-0-0-0-0---0-0-0-0-0--------0-0-0-0---0-0-----------8-

VERSE RIFF

---11--9-----------10--------------------------------
----------7-----6------------------------------------
-------------------------8-----------------------------
------------------------------------------------------
------------------------------------------------------
------------------------------------------------------

THERE IS A chord diagramAA LITTLE RIFF ADDED TO THE ABOVE ONE RIGHT BEFORE THE CHORUS. IT GOES LIKE THIS

-11-9--------10---------------------------------------
-------7---6-------9-------7-5------------------------
-----------------8---8--------------------------------
------------------------------------------------------
------------------------------------------------------
------------------------------------------------------

ANY CORRECTIONS? E chord diagramEE-MAIL ME AT JIMC1030

Comment this song and these guitar tabs

Do you have corrections, comments on the guitar tabs, thoughts about the song or a message to the author? Write them below.