Guitar Tabs Explorer
Korn bass tabs for Faget

Faget bass tab


Be the first to rate

Faget bass tab by Korn

Bass tabs

Print

MAIN RIFF
G-------------------------------
D-------------------------------
A-0--0-0-0--0-0--0-0--1-1-1-1---
E-------------------------------

G----------------
D----------------
A-0--0-0-0--0-0--
E----------------

RIFF           "FAGET"
G-----------------------
D-----------------------
A-0--0-0-0--0-0--0-0----
E-----------------------

RIFF
G-----------------------
D-----------------------
A-6--7--5----2--3--4----
E-----------------------

Comment this song and these bass tabs

Do you have corrections, comments on the bass tabs, thoughts about the song or a message to the author? Write them below.