Log in

One click and you are in

Login with Facebook Login with Google

Why sign up and log in

Guitar Tabs Explorer
Korn bass tabs for Everything that i ve known

Bass tabs

Intro:
C------------------------------ (x1)
G------------------------------
D--10--------------------------
A----- 9/2~~-------------------

Chorus:
C-------------------------- (repeat till verse)
G---53-------------------
D--------------------------
A-------2-22-2-30---------
    s s s ss s ss


Verse:
C----------------------- (repeat till pre chorus)
G'”53------------5-----
D-----------5-3-5------
A--------2-------------


Pre Chorus:
C-------------------------------- (x1)
G--------------------------------
D-------1~-2~-3~-----------------
A'”3~-----------------------------

Pre Bridge:
C----------------------- (repeat till bridge)
G----------------------
D----------------------
A--2-3-0---------------
   s s s

Bridge:
C--------------------------------- (x1)
G----------------------------------
D---3/10~--------------------------
A----------------------------------

Almost there ...

Sign in to get your own page with links to favourite songs and more. You are just one click away...

Login with Facebook Login with Google