Search tabs and chords

Search for song, artist or band

Log in

One click and you are in

Login with Facebook Login with Google

Why sign up and log in

Guitar Tabs Explorer
Korn bass tabs for Embrace

Bass tabs

5 string bass tuned down 1 step.

This song i sorta had trouble with it, but this may be it.


RIFF 1

   T T  T T T
F------------
C------------
G------------
D------------
A--3-0--0-1-0

RIFF 2/1
                "..the lies te hurt the pain the hate..|
F-------------------------
C-------------------------
G-------------------------
D-------------------------
A-3-0-1---------3-0--0-1-0

PRE CHOURES

F------------------------------------
C------------------------------------
G------------------------------------
D------------------------------------
A-3--3-3--3-3--3-\7--3--3-3--3-3--3-4

CHOURES

F----------------------
C----------------------
G----------------------
D--8--7--6--4\5/4--5---
A--------------------0-

"..embrace.." repeated 8 times. 2:27-2:36

RIFF 5  STARTS 2:37-2:54
  "oh..........uh ah uh oh
F--------------------------
C--------------------------
G--------------------------
D--------------------------
A-5\17/5-------5\17/5------

RIFF 6 STARTS 2:54 - 3:12
( IN SYNC WITH DRUMS )
F
C
G
D
A--0--X-X--0


BACK TO RIFF 5  ".im bringing me down.."
F-------
C-------
G-------
D-------
A-5\17/5

CHOURES RIFF:
RIFF 1

   
Well, i think thats it, i may be wrong. But atleast its a little clue.
Fieldy, if you ever see this, dont get pissed at me!

                     Korn 4e!!!

Almost there ...

Sign in to get your own page with links to favourite songs and more. You are just one click away...

Login with Facebook Login with Google