Guitar Tabs Explorer
Korn guitar tabs for Divine

Divine tab


Be the first to rate

Divine tab by Korn

Guitar tabs with lyrics

Print

Divine-KoRn

Transcribed by James Albers

Intro Riff
F|| chord diagramF||F||---------------------------||
C|| chord diagramC||C||-----16-16----16-16----16--||
B||-----15-15----15-15----15--||
B||-----14-14----14-14----14--||
B||--00-13-13-00-13-13-00-13--||

Main Riff                            Fill1(instead of last 13/14/15/16 chord)
F|| chord diagramF||F||--------------------------------||-------||
C|| chord diagramC||C||------16-16------16-16------16--||--4----||
B||------15-15------15-15------15--||--3----||
B||------14-14------14-14------14--||--2----||
B||--0-0-13-13-0-0--13-13-0-0--13--||--1----||

Riff 2 (I think this is right)
F|| chord diagramF||F||-------------------------------------------------------------||
C|| chord diagramC||C||---------------------------------------------------------16--||
B||---------------------------------------------------------15--||
B||---------------------------------------------------------14--||
B||--432--321--210--432--321--210--432--321--210--432--321--13--||

Riff 3                     Fill2(after riff3)
F|| chord diagramF||F||----------------------||------------||
C|| chord diagramC||C||----------------------||--16--------||
B||----------------------||--15--------||
B||--22--22--22--22--33--||--14--------||
B||--00--00--00--00--11--||--13--------||

Riff 4
F|| chord diagramF||F||-------------------||
C|| chord diagramC||C||-------------------||
B||-------------------||
B||--3-3--22-2-2------||
B||--1-1--00-0-0------||

Riff 5
F|| chord diagramF||F||--------------------||
C|| chord diagramC||C||--------------------||
B||--------------------||
B||--3-3--22-22-22-22--||
B||--1-1--00-00-00-00--||

Fill 3(this may be wrong)
F|| chord diagramF||F||-------------------||
C|| chord diagramC||C||-------------16----||
B||-------------15----||
B||---------00--14----||
B||--00-22------13----||

End Riff
   Gtr1-Brian
F|| chord diagramF||F||-------------------------------||
C|| chord diagramC||C||-------------------------------||
B||-------------------------------||   This is just a syncopated version
B||--2----------2----------2------||   of Riff 1.
B||--0----------0----------0------||
 ||
 ||Gtr2-munkey
F|| chord diagramF||F||-------------------------------||   The open notes in () are what gtr1
C|| chord diagramC||C||-----16-16------16-16------16--||   is playing.  I put them in there just
B||-----15-15------15-15------15--||   in case somebody doesn't have two
B||-----14-14------14-14------14--||   guitarists available--as always
B||-(0)-13-13--(0)-13-13--(0)-13--||   listen to the album for rhythm.



Note: This song is pretty simple-it's just a matter of getting the rhythm
down. The lyrics were pretty hard to figure out esp. in verse2, so be
thankful I have decent hearing. For other Korn songs(if you want to
transcribe them yourselves), they use 7strings tuned to (ADGCFad) and use
the diagonal chord structure a lot (like the 13-14-15-16 chord). And a
personal note to that person who has the second entry in Blind.tab:
It ain't cool dissin' people 'cause you think your transcription is
right--next time just enter it without the rude comments.

Comment this song and these guitar tabs

Do you have corrections, comments on the guitar tabs, thoughts about the song or a message to the author? Write them below.