Guitar Tabs Explorer
Korn bass tabs for Divine

Divine bass tab


Be the first to rate

Divine bass tab by Korn

Bass tabs

Print
Same Tuning All Through
S = slap
P= pop


   S    S  P  P  S    S  P  P  S    S  P
G||----------9--9----------9--9----------9-||-------------------------------
D||----------------------------------------||-------------------------------
A||----------------------------------------||-------------------------------
D||----------------------------------------||-------------------------------
A||--0h7--x--------0h7--x--------0h7--x----||-------------------------------


S  S  P  P  S  S  P  P  S  S  P
---------------------------------||-||-------------------------------------
-------2--2--------2--2--------2-||-||-------------------------------------
---------------------------------||-||-------------------------------------
---------------------------------||-||-------------------------------------
-0--0--------0--0--------0--0----||-||-------------------------------------


S  S  P  P  S  S  P  P  S  S  P
---------------------------------||----------------------------------------
-------2--2--------2--2--------3-||----------------------------------------
---------------------------------||----------------------------------------
---------------------------------||----------------------------------------
-0--0--------0--0--------0--0----||----------------------------------------


lyric    (not exact repititions)
---------------------------------------------------------||----------------
---------------------------------------------------------||----------------
---------------------------------------------------------||----------------
-------------------------------------------------------2-||----------------
-4-3-2-------4-3-2-------4-3-2-------4-3-2-------4-3-2---||----------------



----------------------------||-------------------------------||------------
----------------------------||-------------------------------||------------
----------------------------||-------------------------------||------------
7-7-----7-7-----7-7---8---8-||-------------------------------||------------
----------------------------||-0-0-----0-0-----0-0-----1---1-||------------


S    S  P  P  S    S  P  P  S    S  P
---------9--9----------9--9----------9-------------------------------------
---------------------------------------------------------------------------
---------------------------------------------------------------------------
---------------------------------------------------------------------------
-0h7--x--------0h7--x--------0h7--x----------------------------------------

Comment this song and these bass tabs

Do you have corrections, comments on the bass tabs, thoughts about the song or a message to the author? Write them below.