Guitar Tabs Explorer
Korn bass tabs for Dirty

Dirty bass tab


Be the first to rate

Dirty bass tab by Korn

Bass tabs

Print

Intro/Verse
F|-------------------------------
C|-------------------------------
G|---7---------8-7---7---------8-
D|-0---7-0-7-0-----0---7-0-7-0---
A|-------------------------------

F|---------------------
C|---------------------
G|---------------------
D|---------------------
A|--5-----11--6--1-----

Chorus              Repeat 3x
F|--------------------|
C|-------------------o|
G|--------------------|
D|-0---3-------3-----o|
A|---------1-------3--|

F|-------------------------------
C|-------------------------------
G|---7---------8-7---7---------8-
D|-0---7-0-7-0-----0---7-0-7-0---
A|-------------------------------

F|---------------------
C|---------------------
G|---------------------
D|---------------------
A|--5-----11--6--1-----

F|--------------------|
C|-------------------o|
G|--------------------|
D|-0---3-------3-----o|
A|---------1-------3--|

1/2 chorus

Bridge
F|-------------------
C|-------------------
G|-------------------
D|-2---3-------------
A|---------0000-00---
           ssss ss

Comment this song and these bass tabs

Do you have corrections, comments on the bass tabs, thoughts about the song or a message to the author? Write them below.