Guitar Tabs Explorer
Korn bass tabs for Did my time

Did My Time bass tab


Be the first to rate

Did My Time bass tab by Korn

Bass tabs

Print

Intro (start after 10 seconds)
G-----------------------------------
D----------------------------------- (2x)
A-3-5-5--3-5-5--3-5-5--3-5-5--------
E-----------------------------------

G-----------------------------
D----------------------------- (2x)
A-----------------------------
E-3-5-5--3-5-5--3-5-5--3-5-5--

G------------
D-----3---2-- (8x)
A-5-0---3----
E------------

Main Riff
G---------------------------------------------------------
D--------------------------------------------------------- (4x)
A-3-4-4--3-4-4--3-4-4--3-4-4--3-5-5--3-5-5--3-5-5--3-5-5--
E---------------------------------------------------------

Chorus
G--------------
D-----3---2---- (8x)
A-5-0---3------
E--------------

Main Riff
G---------------------------------------------------------
D--------------------------------------------------------- (4x)
A-3-4-4--3-4-4--3-4-4--3-4-4--3-5-5--3-5-5--3-5-5--3-5-5--
E---------------------------------------------------------

Chorus
G--------------
D-----3---2---- (8x)
A-5-0---3------
E--------------

(Rest a little bit)

when he says "Betrayed I feel so...enslaved"
G------------------------
D------------------------ (8x)
A-3-3-3-3-3-4-3-3-3-3-1--
E------------------------

(Rest a little bit)

On second "I did my time" (you'll hear when to come in)
G------------------------
D------------------------ (8x)
A------------------------
E-2-2-2-2-2-3-2-2-2-2-0--

Riff 2
G---------------------------------------------------------
D--------------------------------------------------------- (2x)
A---------------------------------------------------------
E-3-4-4--3-4-4--3-4-4--3-4-4--3-5-5--3-5-5--3-5-5--3-5-5--

Chorus
G--------------
D-----3---2---- (8x)
A-5-0---3------
E--------------

Riff 2
G---------------------------------------------------------
D---------------------------------------------------------
A---------------------------------------------------------
E-3-4-4--3-4-4--3-4-4--3-4-4--3-5-5--3-5-5--3-5-5--3-5-5--

G-----------------------------------------------------------
D-----------------------------------------------------------
A-----------------------------------------------------------
E-3-4-4--3-4-4--3-4-4--3-4-4--3-5-5--3-5-5--3-5-5--3-5-5-5--

Comment this song and these bass tabs

Do you have corrections, comments on the bass tabs, thoughts about the song or a message to the author? Write them below.