Log in

One click and you are in

Login with Facebook Login with Google

Why sign up and log in

Guitar Tabs Explorer
Korn bass tabs for Dead bodies everywhere

Bass tabs

Intro
F|---------------------|
C|---------------------|
G|---------------------|
D|---------------------|
A|-3/43-0-3/43-0-1-0-|

Pre - verse
F|------------|
C|------------|
G|------------|
D|------------|
A|-00XXX00XX0-|
Verse:
F|------------|
C|------------|
G|------------|
D|------------|
A|-00XXX00XX0-|


Chorus:
F|---------------------|
C|---------------------|
G|---------------------|
D|---------------------|
A|-3/43-0-3/43-0-1-0-|


Bridge (With wah pedal) when you play notes inside (), push your wah pedal up
F|-------------------------------------------------------------------|
C|-------------------------------------------------------------------|
G|-------------------------------------------------------------------|
D|----(14)----(15)----(14)----(15)-------(14)----(15)---(14)----(15)-|
A|-12------13------12------13------0--12------13-----12------13------|

F|---------------------------------------------------------------------------|
C|---------------------------------------------------------------------------|
G|---------------------------------------------------------------------------|x3
D|------------(14)----(15)----(14)----(15)-------(14)----(15)---(14)----(15)-|
A|15-14-13-12------13------12------13------0--12------13-----12------13------|

F|---------------------|
C|---------------------|
G|---------------------|
D|---------------------|
A|-15-14-13-12~~~~~~~-|

Heavy Bridge
F|---------------|
C|---------------|
G|---------------|
D|---------------|
A|-0-0-22-0-0-33-|

Last Chorus:
F|---------------|
C|---------------|
G|---------------|
D|---------------|
A|-0-0-22-0-0-33-|


Outro 1
F|---------------|
C|---------------|
G|---------------|
D|---------------|
A|-2-2-00-3-3-00-|


Outro 2:
F|-------------------------------------------------------------------|
C|-------------------------------------------------------------------|
G|-------------------------------------------------------------------|
D|----(14)----(15)----(14)----(15)-------(14)----(15)---(14)----(15)-|
A|-12------13------12------13------0--12------13-----12------13------|

F|---------------------------------------------------------------------------|
C|---------------------------------------------------------------------------|
G|---------------------------------------------------------------------------|x3
D|------------(14)----(15)----(14)----(15)-------(14)----(15)---(14)----(15)-|
A|15-14-13-12------13------12------13------0--12------13-----12------13------|
ⓘ Bass guitar tab for 'Dead Bodies Everywhere' by Korn, a nu metal band formed in 1993 from Bakersfield, California, USA. Korn is known for their angry metal music.

Almost there ...

Sign in to get your own page with links to favourite songs and more. You are just one click away...

Login with Facebook Login with Google