Guitar Tabs Explorer
Korn guitar tabs for Daddy

Daddy tab


Be the first to rate

Daddy tab by Korn

Guitar tabs with lyrics

Print

Daddy-Korn

Intro-Fieldy
                 |.1-3....  |..4......
F|| chord diagramF||F||-----------------------||----------||
C|| chord diagramC||C||-----------------------||----------||
B||-----------------------||----------||
B||------1^0-------1^0----||----------||
B||--0-0-----0-0--0----0--||--0-1-----||

Verse Riff-Munky
d||-------------------||
a||-----13------12----||
F|| chord diagramF||F||--16------15-------||
C|| chord diagramC||C||-------------------||

Chorus
C|| chord diagramC||C||----------------------------------------||
B||--4/5-4----4/5-4----4/5-3----3/4-3------||  * this chord is a 1/3/3
B||--4/5-4----4/5-4----4/5-3----3/4-3------||    chord on the repeat
B||--2/3-2----2/3-2----2/3-1----1/2-1------||
     *
Fill 1
F|| chord diagramF||F||-----------------||
C|| chord diagramC||C||--0--------------|| "It's alright"
B||--4-5------------||
B||-----------------||

Bridge
d||----------------13^--------------------||  <-Gtr 1
a||---------------------------------------||
F|| chord diagramF||F||---------------------------------------||  Gtr 2 plays A chord diagramAA & D chord diagramDD strings
C|| chord diagramC||C||---------------------------------------||  behind chorus-replace 1/3
B||---------------------------------------||  with open string triplet.
B||--2---------2---------2---------2---3--||  Riff fades in after
B||--0-0--00-0-0-0-00----0-0--00-0-0--01--||  "I said no one hears me..."

Bridge2-"I didn't touch you there"
C|| chord diagramC||C||------------------------||
B||--4--5-5-4-8----5----8--||	After go to Verse riff
B||--4--5-5-4-8----5----8--||
B||--2--3-3-2-6----3----6--||

Fill 2      |....Regular Chorus..............|
F|| chord diagramF||F||----------------------------------------------||
C|| chord diagramC||C||----------------------------------------------||
B||--------4/5-4----4/5-4----4/5-3----3/4-3------||
B||--------4/5-4----4/5-4----4/5-3----3/4-3------||
B||--2223332/3-2----2/3-2----2/3-1----1/2-1------||


Near end (~6:27)
d||-------------------------------------------------------------||
a||-------------------------------------------------------------||
F|| chord diagramF||F||--(4)--(3)--4--3--4-----------------4--3--4--3-----0---------||
C|| chord diagramC||C||---------------------4--5----4--5---------------4--4~~~~~~~--||
B||-------------------------------------------------------------||

Ends with(before heavy breathing~7:05)
d||-------------------------------------||
a||-------------------------------------||  x=G# (or play 16th fret on
"d" string)
F|| chord diagramF||F||--4-4-4-4-4-4-------------x-x-x-x-x--||  x is right over neck pickup
C|| chord diagramC||C||-------------------------------------||
    PM...........|
----------------------------------------------------
I'll end my transcription here since the remainder of the song is
Jonathan Davis crying and adlib guitar. If anyone wants me to transcribe
that part too, email me (jalbers@ucsd.edu).  As for the rest of the song,
the riffs are easy and could be played on a guitar tuned ADGCea.  Also, I
have received mail stating that Korn tunes to ADADGbe, not ADGCFad.  That is
what Guitar School has determined how they play, and it is not necessarily
correct.  In the Blind video it is apparent that at least Munky (Gtr1) plays
his 7strings tuned ADGCFAD (fingering position is the same in my transcription
of Blind).  Either way is correct for transcriptions, but the video suggest
they play (all strings) a whole step down, not ADADGbe.
The lyrics are again transcribed by me with the help of another guy
(sorry-forgot your name/address, but thanks anyway) and are written the
exact order he says them in. The very last part during the crying is
transcribed by me and is what I hear.
----------------------------------------------------

Comment this song and these guitar tabs

Do you have corrections, comments on the guitar tabs, thoughts about the song or a message to the author? Write them below.