Guitar Tabs Explorer
Korn guitar tabs for Coming undone

Coming Undone tab


5 / 5 [1 vote]

Coming Undone tab by Korn

Guitar tabs

Print

Intro + Verse1    Lots of pauses and rests in this part
----------------------------------------------------------------
----------------------------------------------------------------
----------------------------------------------------------------
-5----5-5--5-5--5-5--5-5--5-5----------------------------------- x5
-5----5-5--5-5--5-5--5-5--5-5-----------------------------------
-5----5-5--5-5--5-5--5-5--5-5-----------------------------------

" Thats Right!! "  "Deliver It To My Heart!!"   (Listen to the song)
----------------------------------------------------------------
----------------------------------------------------------------
-7-7--3-3------------------------------------------------------- x4
-7-7--3-3--3-3--1-1---------------------------------------------
-5-5--1-1--3-3--1-1---------------------------------------------
-----------1-1--1-1---------------------------------------------

 Chorus
------------------
------------------
------------------
-5-5-6-7---------- x8
-5-5-6-7----------
-5-5-6-7----------

2nd Verse
-----------------------------------
-----------------------------------
-----------------------------------
-5----5-5--5-5--5-5--5-5--5-5------ x8
-5----5-5--5-5--5-5--5-5--5-5------
-5----5-5--5-5--5-5--5-5--5-5------

 "Thats Right!!"
--------------------------
--------------------------
-7-7--3-3-----------------
-7-7--3-3--3-3--1-1------- x4
-5-5--1-1--3-3--1-1-------
-----------1-1--1-1-------

Chorus
--------------------------
--------------------------
--------------------------
-5-5-6-7------------------ x8
-5-5-6-7------------------
-5-5-6-7------------------

3RD Verse
-------------------------------------------
-------------------------------------------
-18----------------------------------------
--x--5-5-5-5-5-5--------5-5-5-5-4-4-4------
-16--5-5-5-5-5-5-(x4)---5-5-5-5-4-4-4--(x4)
-----5-5-5-5-5-5--------5-5-5-5-4-4-4------

Chorus
----------------
----------------
----------------
-5-5-6-7-------- x9
-5-5-6-7--------
-5-5-6-7--------

End Part After The Chorus (outro)
--------------------------------
--------------------------------
--------------------------------
-5-4-5-4-5-4-5-4---------------
-5-4-5-4-5-4-5-4---------------
-5-4-5-4-5-4-5-4---------------

Other versions of Coming Undone

Coming undoneChords
Coming undone acousticChords

Comment this song and these guitar tabs

Do you have corrections, comments on the guitar tabs, thoughts about the song or a message to the author? Write them below.