Guitar Tabs Explorer
Korn guitar tabs for Clown

Clown tab


Be the first to rate

Clown tab by Korn

Guitar tabs with lyrics

Print

Clown-Korn
Transcribed by James Albers

Intro
d||------------------||
a||------------------||	Bend up 1/2 step
F|| chord diagramF||F||----------4^------||	Last time bend up full step
C|| chord diagramC||C||------------------||	--played by Gtr 1
B||------------------||	Open notes(Gtr 2) could be
B||------------------||	--0^1-0-- or --00-00--
B||--00--0-----------||

Riff 1a(Gtr 2)
B||---------------------------------||	After the bass riff.
B||--0^3-3-0^2-2-0^3-3-0^2-2-0^3-1--||  Quick sounding open notes.

Riff 1(both gtrs)
B||---------------------------------||	Same as Riff 1a with
B||--2/5-5-2/4-4-2/5-5-2/4-5-2/5\3--||	Both guitars
B||--0^3-3-0^2-2-0^3-3-0^2-2-0^3\1--||

Riff 2
B||---------------------------------||	Right before the verse
B||----5----4----5----4----5--\3~~--||
B||--x-3--0-2--0-3--0-2--0-3--\1~~--||

Verse Riff(Gtr 2)   |......     |.....
F|| chord diagramF||F||--------------------------||--------|| Last part is a fill after
C|| chord diagramC||C||--------------------------||--------|| "my body"; "tried to hit me"
B||--555-444-555-444-55-4~~--||--------|| "within me"; and ""wannabe"
B||--------------------------||--5--4--||
B||--------------------------||--------||
     PM................|

Verse riff(Gtr 1--chicken sound)
F|| chord diagramF||F||-------------------------||	Pick scrapes denoted
C|| chord diagramC||C||-------------------------||	by "x" on that particular string.
B||-------------------------||	Rhythm corresponds to other verse riff.
B||-xxx-xxx-xxx-xxx-xx--x/--||
B||-------------------------||
     *   #   *   #  *   %
*: Note equivalent to "C"
#: Note equivalent to "B"
%: Pick scrape with flange or chorus

Chorus Riff
C|| chord diagramC||C||-----------------------||
B||-----------------------||
B||--2----6\5-55-5\4-4\3--||
B||--0----4\3-33-3\2-2\1--||

Riff 3		   |....  |.....
d||--------8^-------8^--||-------||
a||---------------------||-------||		Higher notes played by Gtr1
F|| chord diagramF||F||--------5^-------5^--||-------||		Lower player by Gtr2
C|| chord diagramC||C||---------------------||-------||		both play open notes
B||---------------------||-------||		and fill
B||--2------------------||--3-4--||
B||--0--00-------000----||--1-2--||

End Riff
C|| chord diagramC||C||------------------||	Same as intro w/o gtr 1 part
B||------------------|| 	See notes for intro riff
B||--2---2-----------|| 	Gtr 1 does pick scrapes w/ a flange
B||--00--0-----------||

----------------------------------------------------
-----------------------------------
This one was a bastard.  Transcribing the intro riffs were difficult, but
I think I got them down. Munky's pick scraping part is too hard to
transcribe exzactly because every guitar is different, and if I gave
location in inches or centimeters it would be different for everybody.
Lyrically, the chorus' first words may be wrong so I put what I thought
it would be. In the bridge "Hit me clown", he might be saying "Hate me
clown".  At the end of the bridge and at the end of the song, he switches
between lyrics.  Next up "Daddy"...

Laters--
James  <jalbers@sdcc10.ucsd.edu

Comment this song and these guitar tabs

Do you have corrections, comments on the guitar tabs, thoughts about the song or a message to the author? Write them below.