Guitar Tabs Explorer
Korn guitar tabs for Chi

Chi tab


Be the first to rate

Chi tab by Korn

Guitar tabs

Print

Band: KoRn    transcript by: Ben Long

7-sting guitar tuned down a full step

Intro
-------
-------
-------
-------
-------feedback
-4\3---
-2\1---

Intro 2
------------------
------------------
------------------
------------------
------------------
-4\3-3\2-2--2-3/4-
-2\1-1\0-0--0-1/2-

Pre-verse
-12---------------
------------------
------------------
------------------
------------------
------------------
------------------

Verse-all natural harmonics
-14---------14--------
-----11--------11-12--
--------11\-----------
----------------------
----------------------
----------------------
----------------------

Chorus same as intro 2

Bridge 1
me entering my head...
-----------------------
-----------------------
-----------------------
-Feedback--------------
-----------------------
-----------------------
-----------------------

Bridge 2
-------------------
-------------------
-------------------
-------------------
-------------------
-2--2-2-2-7-7--3-3-
-0--0-0-0-5-5--1-1-

Bridge 3
---------------------------
---------------------------
---------------------------
---------------------------
---------------------------
-2222--2222--2222-7-7--3-3-
-0000--0000--0000-5-5--1-1-

Outro
Bite!
----------
----------
----------
----------
----------
-5--4\3-2-
-3--2\1-0-

Comment this song and these guitar tabs

Do you have corrections, comments on the guitar tabs, thoughts about the song or a message to the author? Write them below.