Search tabs and chords

Search for song, artist or band

Log in

One click and you are in

Login with Facebook Login with Google

Why sign up and log in

Guitar Tabs Explorer
Korn bass tabs for Chi

Bass tabs with lyrics

Listen the song for timing and will sound perfect.

Little part.... just before jon says "PAIN"
A|--0---|

Intro (slap distortion)
F|---------------|
C|---------------|
G|---------------| Listen song for timing
D|---------------|
A|--2/32-1-00-1-|

Pre-verse I (slap distortion)
F|---------------|
C|---------------|
G|---------------|x1
D|---------------|
A|-2/3-33-2-11-X-|

F|-----------------|
C|-----------------|
G|-----------------|x3
D|-----------------|
A|-1-2/3-33-2-11-X-|

Verse (Im not sure of this riff, but it sounds good)
F|----------------|--------------------|
C|----------------|--------------------|
G|----------------|--------------------| (slap distortion)
D|----------------|--------------------|
A|--3-0-1-0--2-0--|--3-0-1-0-2222/111--|

F|----------------|----------------|
C|----------------|----------------|
G|----------------|----------------| /// A slow slide
D|----------------|----------------|
A|--3-0-1-0--2-0--|--3-0-1-0-2///1-|

Chorus (slap distortion)
F|-----------------|
C|-----------------|
G|-----------------| Listen song for timing
D|-----------------|
A|-2/3-33-2-11-0-1-|

Pre-verse II (slap distortion)
F|---------------|
C|---------------|
G|---------------|x1
D|---------------|
A|-2/3-33-2-11-X-|

F|-----------------|
C|-----------------|
G|-----------------|x2
D|-----------------|
A|-1-2/3-33-2-11-X-|

F|-----------------|
C|-----------------|
G|-----------------|x1
D|-----------------|
A|-2-3/4-44-3-22-X-|

Bridge I (fat distortion)
F|---------------------|
C|---------------------|
G|--14---13------------| Each second time play this with
D|-----14---13---------| other timing, listen song and you
A|-------------13-12~~-| will understand.

Bridge II (Where jon says "CANT YOU FEEL THIS PAIN!!!!??"
F|-----------------|
C|-----------------|
G|-----------------| (slap distortion)
D|-----------------|
A|--3---2-22-1-1---|

Bridge III (After bridge II) (slap distortion)
F|--------|
C|--------|
G|--------| When Jon start screaming for a while
D|--------|
A|--3-3/1-|

Bridge IV 1x After Bridge III (slap distortion)
F|----------|
C|----------|
G|----------|
D|----------|
A|-2-22-1-1-|

Bridge III (After bridge IV) (slap distortion)
F|--------|
C|--------|
G|--------| When Jon start screaming for a while (Again)
D|--------|
A|--3-3/1-|

Then Bridge IV 1x After Bridge III
F|----------|
C|----------|
G|----------| (slap distortion)
D|----------|
A|-2-22-1-1-|

After all Bridges (fat distortion)
F|-----------------------|
C|-----------------------|
G|--14---13--------------|
D|-----14---13-----------|
A|-------------13-12~~1-|

F|-------------|
C|-------------|
G|-------------| Listen song for timing.
D|--5-0--------|
A|-------4-3-2-|

After fade out repeat Chorus x4
Then Intro x8

Outro (Where Jon says "PAIN") until end of the song.
F|------------|
C|------------|
G|------------| (slap distortion)
D|------------|
A|--4--2-2/3--|

Other versions of Chi

Children of the kornBass tabs

Almost there ...

Sign in to get your own page with links to favourite songs and more. You are just one click away...

Login with Facebook Login with Google