Guitar Tabs Explorer
Korn guitar tabs for Cameltosis

Cameltosis tab


Be the first to rate

Cameltosis tab by Korn

Guitar tabs

Print
Album: Follow The Leader
*********************************************************************

Transcribed by HIV_971@hotmail.com


Fig 1 (Intro)
   Guitar 1             Guitar 2
d||--------------------|------------------||
B||--9s10---9s10-9s10--|------------------||
F|| chord diagramF||F||--------------------|-----5-5-----5----||
C|| chord diagramC||C||--------------------|--9--------4---4--||
B||--------------------|--9---------------||
B||--------------------|--7---------------||


Fig 2 (verse riff)
d||------------||
B||------------||
F|| chord diagramF||F||--7--11--6--||
C|| chord diagramC||C||------------||
B||--5---9--4--||
B||------------||


Fig 3 (Pre-Chorus riff)
d||------------||
B||--9---6-----||
F|| chord diagramF||F||------------||
C|| chord diagramC||C||------------||
B||------------||
B||------------||


Fig 4 (Chorus riff)
   Guitar 1 (2x)  Guitar 2
d||--------------|-----------||
B||--------------|---20------||
F|| chord diagramF||F||-----11--12---|-----------||
C|| chord diagramC||C||--9--11--12---|---17------||
B||--9---9--10---|-----------||
B||--7-----------|-----------||

Comment this song and these guitar tabs

Do you have corrections, comments on the guitar tabs, thoughts about the song or a message to the author? Write them below.