Guitar Tabs Explorer
Korn bass tabs for Bottled up inside

Bottled Up Inside bass tab


Be the first to rate

Bottled Up Inside bass tab by Korn

Bass tabs

Print

Main Riff
D|---------------------||
A|--------------------*|| x16
E|--------------------*||
A|-0-0-2-0-0-2-0-0-2-2-||

Pre-Chorus
D|------------------|
A|-----------------*| x3
E|---7-------------*|
A|-0---6--4--3--02--|

Pre-Chorus Continued
D|--------||------------------||
A|--------||-----------------*|| x2
E|---7----||-----------------*||
A|-0---6--||-0-2-0-2-33-2-0-2-||

Chorus
D|------------------------------|
A|-----------------------------*|
E|---------------------7---5---*|
A|-0-0-2-0-0-2-0-0-2-0---7---5--|

D|---------------------||
A|--------------------*|| x8
E|--------------------*||
A|-0-0-2-0-0-2-0-0-2-2-||

D|------------------|
A|-----------------*| x3
E|---7-------------*|
A|-0---6--4--3--02--|

D|--------||------------------||
A|--------||-----------------*|| x2
E|---7----||-----------------*||
A|-0---6--||-0-2-0-2-33-2-0-2-||

D|------------------------------|
A|-----------------------------*|x4
E|---------------------7---5---*|
A|-0-0-2-0-0-2-0-0-2-0---7---5--|

Interlude
D|------------------||
A|-----------------*|| x10
E|-----------------*||
A|-0-2-0-2-33-2-0-2-||

Break Down
D|------------------------||
A|-----------------------*||
E|-----------------------*||
A|-0-2-00-2-0-2-00-12---||

D|------------------------------|
A|-----------------------------*|x4
E|---------------------7---5---*|
A|-0-0-2-0-0-2-0-0-2-0---7---5--|

D|------------------------||
A|-----------------------*||x 4
E|-----------------------*||
A|-0-2-00-2-0-2-00-12---||

End
D|-----||
A|-----||
E|-----||
A|-0~~-|| let ring

Comment this song and these bass tabs

Do you have corrections, comments on the bass tabs, thoughts about the song or a message to the author? Write them below.