Guitar Tabs Explorer
Korn guitar chords for Bottled up

Bottled Up chords


Be the first to rate

Bottled Up chords by Korn

Guitar chords

Print

BOTLLED UP
KORN
UNTOUCHABLES (2002)
RIFF (W/ heacy distortion)
e--------------------------------------
b--------------------------------------
g--------------------------------------
d--2-------------------4--------------5
a--2----x 8 times and  4 and back-----3
e--4-------------------3------------- 3

pre chorus

F chord diagramFF (no dist.) F# chord diagramF#F# (w/dist)

chorus

e--------------------------------------
b--------------------------------------
g--------------------------------------
d--4------------2---------------------
a--4------------2---------------------
e--6------------4---------------------

FACUNDO MADRID
ROSARIO, ARGENTINA

Comment this song and these guitar chords

Do you have corrections, comments on the guitar chords, thoughts about the song or a message to the author? Write them below.