Guitar Tabs Explorer
Korn guitar tabs for Blind

Blind tab


Be the first to rate

Blind tab by Korn

Guitar tabs with lyrics

Print

Song  : Blind
Album : Self titled
Tabbed by : Duncan Campbell
E chord diagramEE-mail: duckman_dozzala@hotmail.com

the actual song is in A chord diagramAA (a 7 string dropped a whole
step) but since this is goning to to be played in D chord diagramDD it
will sound quite similar to the CD, It will sound good
even if the others in your band play it in A chord diagramAA. Ive also
added a part which an extra guitar can play during the
chorus if you dont have a singer(it follows the tone
of the singer)

/slide up
\slide down

both guitars are tuned DADGBE
Intro (guitar 1)
|--------------------------------------------|
|-3-3-3-3------------------------------------|
|-1-1-1-1------------------------------------|
|-0-0-0-0------------------------------------|
|--------------------------------------------|
|--------------------------------------------|

IntroA (Guitar 2) X2
|--------------------------------------------|
|--------------------------------------------|
|--------------------------------------------|
|--------------------------------------------|
|-2-4-2-5------------------------------------|
|-2-4-2-5------------------------------------|

IntroB (guitar 2)X4
|--------------------------------------------|
|--------------------------------------------|
|--------------------------------------------|
|-0-2-0-3-0-2-0-3----------------------------|
|-0-2-0-3-0-2-0-3----------------------------|
|-0-2-0-3-0-2-0-3----------------------------|

Main Riff (guitar 1)

|--------------------------------------------|
|--------------------------------------------|
|--------------------------------------------|
|-0-2-0-3-0-2-0-3-6666-----------------------|
|-0-2-0-3-0-2-0-3-6666-----------------------|
|-0-2-0-3-0-2-0-3-6666-----------------------|

Main Riff (guitar 2)
|--------------------------------------------|
|------------------3333----------------------|
|------------------1111----------------------|
|-0-2-0-3-0-2-0-3--0000----------------------|
|-0-2-0-3-0-2-0-3----------------------------|
|-0-2-0-3-0-2-0-3----------------------------|

Chorus (guitar 1)

|--------------------------------------------|
|--------------------------------------------|
|--------------------------------------------|
|-0-0000-0----1-1111-1-0-0000-0-1-1111-1-etc-|
|-0-0000-0----1-1111-1-0-0000-0-1-1111-1-etc-|
|-0-0000-0----1-1111-1-0-0000-0-1-1111-1-etc-|

Chorus (guitar 2)[swirling effect, probably Flanger]

|--------------------------------------------|
|-3-3333-3-4-4444-4-3-3333-3-4-4444-4--------|
|--------------------------------------------|
|--------------------------------------------|
|--------------------------------------------|
|--------------------------------------------|

(this part is same rythem as above)
|--------------------------------------------|
|-15-15-15-15-15-15-16-16-16-16-16-16-16-----|
|--------------------------------------------|
|--------------------------------------------|
|--------------------------------------------|
|--------------------------------------------|

bridge (guitars 1 + 2 )X2

|--------------------------------------------|
|--------------------------------------------|
|--------------------------------------------|
|-0-1-000-0-1-/6--0-1-000-0-1-/5-------------|
|-0-1-000-0-1-/6--0-1-000-0-1-/5-------------|
|-0-1-000-0-1-/6--0-1-000-0-1-/5-------------|


Then Back to chorus
Then Bridge Again
Back to main riff

interlude (guitar 1) this is the part where i cant
figure out. It sounds exactly right but i know its
not. it has a flanger thing using 2 different guitars
but anyways, this is how i play it and it sounds good
|--------------------------------------------|
|-4\-3--/4444--4\--3---/4444-----------------|
|-2\-1--/2222--2\--1---/2222-----------------|
|-0\-0--/0000--0\--0---/0000-----------------|
|--------------------------------------------|
|--------------------------------------------|

then chorus
Main riff

endon Bass
|--------------------------------------------|
|--------------------------------------------|
|----12-------13----------12-------13--------|
|-12----12--13-----13--12----12-13----13-----|

Endon (guitar 1)

|--------------------------------------------|
|-10b(about 12)------------------------------|
|--------------------------------------------|
|--------------------------------------------|
|--------------------------------------------|
|--------------------------------------------|

Endon (Guitar 2)

|-12\(slides down after guitar 1 plays the A chord diagramAA note|
|--------------------------------------------|
|--------------------------------------------|
|--------------------------------------------|
|--------------------------------------------|
|--------------------------------------------|

Extra part
|--------------------------------------------|
|-3--/10-10-8-10-11-11,11-11,11-10--10-10-8--|
|--------------------------------------------|
|--------------------------------------------|
|--------------------------------------------|
|--------------------------------------------|

|--------------------------------------------|
|-10-11-10-8-88-8-7--------------------------|
|--------------------------------------------|
|--------------------------------------------|
|--------------------------------------------|
|--------------------------------------------|

Other versions of Blind

Blind (Ver. 2)Tabs
Blind1Tabs

Comment this song and these guitar tabs

Do you have corrections, comments on the guitar tabs, thoughts about the song or a message to the author? Write them below.