Guitar Tabs Explorer
Korn guitar tabs for Bleeding out

Bleeding Out tab


Be the first to rate

Bleeding Out tab by Korn

Guitar tabs with lyrics

Print
--------------------------------------------------
Korn - Bleeding Out (featuring Feed Me & Deadmau5)
--------------------------------------------------

From "The Path Of Totality"

Transcribed by Travis Lausch



Tuning: G chord diagramGG D chord diagramDD G chord diagramGG C chord diagramCC F chord diagramFF A chord diagramAA D chord diagramDD (dropped-A chord diagramAA tuning down one full step)


No one's really tabbed too much from "The Path Of Totality" yet, so I figured
I'd give a song or two a go, thinking "it can't be too hard! It's Korn doing dubstep!"
Well, I was pretty much right, but there are a lot of subtle little things going on
in this tune, so it was hard to catch some of the guitar parts or figure out what's
guitar and what's synth. This turned out to be a really detailed tab, since there are lots
and lots of subtle guitar tracks creeping in and out of the mix. I probably could have
condensed this into just the main riff and a couple of the other parts, but I wanted to catch
every little guitar detail in the track because I don't half-ass these things. Some of the
tacits (pauses for you non-theory-heads) appear in different places during repeats of the
chorus, and the backing of the bagpipe solo changes a little in the last bar.

I've arranged the bagpipe solo for guitar. Note the instructions. If it seems hard to play,
I'll probably end up editing this with a link to a video of me playing it!

I always thought this song was played on an eight-string because it sounds lower than
Munky's usual A chord diagramAA-standard seven-string riffage, but it turns out the lowest note is a G chord diagramGG, so
drop-G chord diagramGG seems to work best for this piece. I could be wrong, and it could still be played
on an eight-string, but I've arranged it for 7-string in drop-G chord diagramGG regardless. Besides, Korn has
used this tuning on a track before ("Dirty" from the Issues album), so it makes sense they'd
use it again!

Enjoy, and thanks!



Intro

Piano and synths until 0:38
   (w/distortion and wah)
                         x3
||-------------------------||-------------------------|
||-------------------------||-------------------------|
||o-----------------------o||-------------------------|
||-------------------------||-------------------------|
||o-----------------------o||-------------------------|
||--3b(5)-----3bbbbb(5)----||--/8-------/12-----------|
||-------------------------||-------------------------|
              (slow bend)
w/whammy pedal or octave effect, mix of dry sound and one octave up
Could also be another guitar doubling an octave higher


  Lead (w/effect I can't identify, but it's definitely guitar)
|--------------13----12----|--------------13----12----|--------------13----12----|--------------15----12----|
|--10------10--------------|--10------10--------------|--13------13--------------|--15------15--------------|
|--------------------------|--------------------------|--------------------------|--------------------------|
|--------------------------|--------------------------|--------------------------|--------------------------|
|--------------------------|--------------------------|--------------------------|--------------------------|
|--------------------------|--------------------------|--------------------------|--------------------------|
|--------------------------|--------------------------|--------------------------|--------------------------|
|
| "Colour" guitar (w/distortion)
|--------------------------|--------------------------|--------------------------|--------------------------|
|--------------------------|--------------------------|--------------------------|--------------------------|
|--------------------------|--------------------------|--------------------------|--------------------------|
|--------------------------|--------------------------|--------------------------|--------------------------|
|--------------------------|--------------------------|--------------------------|--------------------------|
|--------------------------|--------------------------|--5-----------8-----------|--7-----------8-----5-----|
|--------------------------|--------------------------|--------------------------|--------------------------|
|
| Rhythm (w/surprisingly dry distortion)                 light palm mute---------------------------------|
|--------------------------|--------------------------|--------------------------|--------------------------|
|--------------------------|--------------------------|--------------------------|--------------------------|
|--------------------------|--------------------------|--------------------------|--------------------------|
|--------------------------|--------------------------|--------------------------|--------------------------|
|--------------------------|--------------------------|--5--5--5--5--5--5--5--5--|--8--8--8--8--8--8--8--8--|
|--------------------------|--------------------------|--5--5--5--5--5--5--5--5--|--8--8--8--8--8--8--8--8--|
|--------------------------|--------------------------|--5--5--5--5--5--5--5--5--|--8--8--8--8--8--8--8--8--|


Main riff (w/distortion)
||-------------------------------|-------------------------------------------|
||-------------------------------|-------------------------------------------|
||o------------------------------|-------------------------------------------|
||-------------------------------|-------------------------------------------|
||o------------------------------|-------------------------------------------|
||-------------------------------|------------------------0------------------|
||--0--0-0-0--0--1-0----3p1-1p0--|---0--0-0-0--0--0----0-----3----1----0-----|


  Tacit on 2nd repeat
    |-----|
|-----------------------------------|------------------------------------||
|-----------------------------------|------------------------------------||
|-----------------------------------|-----------------------------------o||
|-----------------------------------|------------------------------------||
|-----------------------------------|-----------------------------------o||
|-----------------------------------|------------------------------------||
|---0--0-0-0--0--0--1-0----3p1-1p0--|---0--0-0-0---0---0-1------3p1-1p0--||


Verse (tabbing this part as two separate guitars)

Rhythm
                         x3
||-------------------------||-------------------------|
||-------------------------||-------------------------|
||o-----------------------o||-------------------------|
||-------------------------||-------------------------|
||o-----------------------o||-------------------------|
||--3b(5)-----3bbbbb(5)----||--/8-------/12-----------|
||-------------------------||-------------------------|
              (slow bend)
w/whammy pedal or octave effect, mix of dry sound and one octave up
Could also be another guitar doubling an octave higher

  Lead (clean tone with phaser or vibrato effect)
|----------------------12----------|----------------------12----------|
|--10------10------13------13------|--10------10------13------13------|
|------11------11--------------11--|------11------11------------------|
|----------------------------------|----------------------------------|
|----------------------------------|----------------------------------|
|----------------------------------|----------------------------------|
|----------------------------------|----------------------------------|

|----------------------12----------|-----------------------------|
|--10------10------13------13------|--8------8---------7-----7---|
|------11------11--------------11--|-----11-----11--9-----9------|
|----------------------------------|-----------------------------|
|----------------------------------|-----------------------------|
|----------------------------------|-----------------------------|
|----------------------------------|-----------------------------|


Pre-chorus

  Lead (w/effect I can't identify, but it's definitely guitar)
|--------------13----12----|--------------13----12----|--------------13----12----|--------------15----12----|
|--10------10--------------|--10------10--------------|--13------13--------------|--15------15--------------|
|--------------------------|--------------------------|--------------------------|--------------------------|
|--------------------------|--------------------------|--------------------------|--------------------------|
|--------------------------|--------------------------|--------------------------|--------------------------|
|--------------------------|--------------------------|--------------------------|--------------------------|
|--------------------------|--------------------------|--------------------------|--------------------------|
|
| Rhythm (w/surprisingly dry distortion)                 light palm mute---------------------------------|
|--------------------------|--------------------------|--------------------------|--------------------------|
|--------------------------|--------------------------|--------------------------|--------------------------|
|--------------------------|--------------------------|--------------------------|--------------------------|
|--------------------------|--------------------------|--------------------------|--------------------------|
|--------------------------|--------------------------|--5--5--5--5--5--5--5--5--|--8--8--8--8--8--8--8--8--|
|--------------------------|--------------------------|--5--5--5--5--5--5--5--5--|--8--8--8--8--8--8--8--8--|
|--------------------------|--------------------------|--5--5--5--5--5--5--5--5--|--8--8--8--8--8--8--8--8--|


Chorus

||-------------------------------|-------------------------------------------|
||-------------------------------|-------------------------------------------|
||o------------------------------|-------------------------------------------|
||-------------------------------|-------------------------------------------|
||o------------------------------|-------------------------------------------|
||-------------------------------|------------------------0------------------|
||--0--0-0-0--0--1-0----3p1-1p0--|---0--0-0-0--0--0----0-----3----1----0-----|


  Tacit on 2nd repeat                                   Tacit on 1st repeat
    |-----|                                             |------------|
|----------------------------------|------------------------------------||
|----------------------------------|------------------------------------||
|----------------------------------|-----------------------------------o||
|----------------------------------|------------------------------------||
|----------------------------------|-----------------------------------o||
|----------------------------------|------------------------------------||
|---0--0-0-0----0--1-0----3p1-1p0--|---0--0-0-0---0---0-1------3p1-1p0--||


Verse (repeat)

Pre-chorus (repeat)

Chorus
  Tacit on 2nd repeat
    |-----|
||-------------------------------|-------------------------------------------|
||-------------------------------|-------------------------------------------|
||o------------------------------|-------------------------------------------|
||-------------------------------|-------------------------------------------|
||o------------------------------|-------------------------------------------|
||-------------------------------|------------------------0------------------|
||--0--0-0-0--0--1-0----3p1-1p0--|---0--0-0-0--0--0----0-----3----1----0-----|

|----------------------------------|------------------------------------||
|----------------------------------|------------------------------------||
|----------------------------------|-----------------------------------o||
|----------------------------------|------------------------------------||
|----------------------------------|-----------------------------------o||
|----------------------------------|------------------------------------||
|---0--0-0-0----0--1-0----3p1-1p0--|---0--0-0-0---0---0-1------3p1-1p0--||



Bagpipe Solo

  Bagpipe arr. for guitar
|-------------------------|---------------------------|--------------------------16h19-|--16--16p14-----------|
|-----------17p16---------|--17--------17p16--14------|--17p14--------14h16h17---------|-------------17h19----|
|--14---16------------14--|---------14------------16--|-----------16-------------------|----------------------|
|-------------------------|---------------------------|--------------------------------|----------------------|
|-------------------------|---------------------------|--------------------------------|----------------------|
|-------------------------|---------------------------|--------------------------------|----------------------|
|-------------------------|---------------------------|--------------------------------|----------------------|
|
| Clean guitar
|-------------------------|---------------------------|--------------------------------|----------------------|
|-------------------------|---------------------------|--------------------------------|----------------------|
|-------------------------|---------------------------|--------------------------------|----------------------|
|---------------------9---|---------------------------|--------------------------9-----|----------------------|
|-------------------------|--10-----------------------|--------------------------------|--10------------------|
|-------------------------|---------------------------|--------------------------------|----------------------|
|-------------------------|---------------------------|--------------------------------|----------------------|


|-------------------------|---------------------------|---------------19-----17-----|--16--16p14--------------|
|-----------17p16---------|--17p14-----*-----17-------|--16-------------------------|-------------17h19-------|
|--14---16------------14--|------------14h16----------|-----------16----------------|-------------------------|
|-------------------------|---------------------------|-----------------------------|-------------------------|
|-------------------------|---------------------------|-----------------------------|-------------------------|
|-------------------------|---------------------------|-----------------------------|-------------------------|
|-------------------------|---------------------------|-----------------------------|-------------------------|
|
| An additional guitar makes scratchy noises by plucking either strings between the nut and tuning pegs, or
| plucking the springs of the tremolo system if your guitar has one.
|
|-------------------------|---------------------------|-----------------------------|-------------------------|
|-------------------------|---------------------------|-----------------------------|-------------------------|
|-------------------------|---------------------------|-----------------------------|-------------------------|
|---------------------9---|---------------------------|-----------------------------|--9----------------------|
|-------------------------|--10-----------------------|-----------------------------|------10-----------------|
|-------------------------|---------------------------|-----------------------------|-------------------------|
|-------------------------|---------------------------|-----------------------------|-------------------------|

   Bagpipes (guitar out)
                                                       x3                                 *dive w/whammy bar
||------16h19-19-17-19-19-16-19-19----19-19----19------||------16h19-19-17-19-19-16-19-19---------------------|
||---------------------------------19-------17----16---||---------------------------------19\\\\\\\\\\\\\\\\--|
||o--16-----------------------------------------------o||---16------------------------------------------------|
||-----------------------------------------------------||-----------------------------------------------------|
||o---------------------------------------------------o||-----------------------------------------------------|
||-----------------------------------------------------||-----------------------------------------------------|
||-----------------------------------------------------||-----------------------------------------------------|

The first notes of all the pull-offs and hammer-ons in this section are grace notes and can be ignored,
but to accurately mimic the sound of the bagpipes, play each hammer-on and pull-off rather quickly.

*regular hammer-on


Chorus
  Tacit on 2nd repeat
    |-----|
||-------------------------------|-------------------------------------------|
||-------------------------------|-------------------------------------------|
||o------------------------------|-------------------------------------------|
||-------------------------------|-------------------------------------------|
||o------------------------------|-------------------------------------------|
||-------------------------------|------------------------0------------------|
||--0--0-0-0--0--1-0----3p1-1p0--|---0--0-0-0--0--0----0-----3----1----0-----|

|----------------------------------|------------------------------------||
|----------------------------------|------------------------------------||
|----------------------------------|-----------------------------------o||
|----------------------------------|------------------------------------||
|----------------------------------|-----------------------------------o||
|----------------------------------|------------------------------------||
|---0--0-0-0----0--1-0----3p1-1p0--|---0--0-0-0---0---0-1------3p1-1p0--||


Outro
  (w/distortion and wah)
|------------------------|----------------||
|------------------------|----------------||
|--10tp------------------|--10\-----------||
|------------------------|----------------||
|------------------------|----------------||
|------------------------|----------------||

Comment this song and these guitar tabs

Do you have corrections, comments on the guitar tabs, thoughts about the song or a message to the author? Write them below.