Search tabs and chords

Search for song, artist or band

Log in

One click and you are in

Login with Facebook Login with Google

Why sign up and log in

Guitar Tabs Explorer
Korn guitar chords for Bitch better have my money

Guitar chords

Korn - Bitch Better Have My Money

This is done by ear but it all sounds correct
Youtube: https://www.youtube.com/watch?v=ezJoFTI9-sk

Tuning: A chord diagramA majorA Standard (7 String)

d|-------------------------------------------------|
a|-------------------------------------------------|
F|-------------------------------------------------|
C|-------------------------------------------------|
G|-------------------------------------------------|
D|-------------------------------------------------|
A|3-3---4-4/--3-3---4-4/--3-3---4-4/--6-6---4-4----|

d|-------------------------------------------------------------------|
a|-------------------------------------------------------------------|
F|-------------------------------------------------------------------|
C|-------------------------------------------------------------------| x2
G|-------------------------------------------------------------------|
D|-------------------------------------------------------------------|
A|3--3--3--3--3--3-3--3--3--3--3----3--3--3--3--3--3-3--3--3--3--3-4-|

d|----------------------------|
a|----------------------------|
F|----------------------------|
C|----------------------------|
G|----------------------------|
D|----------------------------|
A|3------2------3------2------|
  |-----------pm-------------|

d|-------------------------------------------------|
a|-------------------------------------------------|
F|-------------------------------------------------|
C|-------------------------------------------------| x2
G|-------------------------------------------------|
D|------4------------------------------------------| -|
A|3--3----3-4--4--4-4--4-5--5--5-5-6--6-6--6--6----|  |
                                                      |
d|-------------------------------------------------|  |
a|-------------------------------------------------|  |--(Don't think I've got the correct strum patterns down
F|-------------------------------------------------|  |         for these but they are the right notes)
C|-------------------------------------------------|  |
G|-------------------------------------------------|  |
D|------4---6--6--6-6--6-7--7--7-7-8--8-8--8--8----| -|
A|3--3----3-4--4--4-4--4-5--5--5-5-6--6-6--6--6----|

d|----------------------------------------------------|
a|----------------------------------------------------|
F|----------------------------------------------------|
C|----------------------------------------------------|
G|5--5--5--5-5-5--5--5--5-5-6--6--6--6-6-6--6--6--6-6-|
D|3--3--3--3-3-3--3--3--3-3-4--4--4--4-4-4--4--4--4-4-|
A|----------------------------------------------------|

Almost there ...

Sign in to get your own page with links to favourite songs and more. You are just one click away...

Login with Facebook Login with Google