Guitar Tabs Explorer
Korn bass tabs for B b k

B B K bass tab


Be the first to rate

B B K bass tab by Korn

Bass tabs

Print

Keep to the beat of the drums at all times.

Chorus:
F|----------------------|
C|----------------------|
G|----------------------|
D|---------1------1-1-2-|
A|-0-0-0-0---0--0-------|

3rd Verse:
F|----------------------|--------------------|
C|----------------------|--------------------|
G|----------------------|------15------------|
D|----------------------|---14-----14\-------|
A|-0-----0--12-------12-|--------------0H1/--|

Interlude:
F|----------------------------|   F|-------|
C|----------------------------|   C|-------|
G|----------------------------|   G|-------|
D|---------1--------1---------|   D|-----7-|
A|-0-0-0-0---0--0-0---(0)-(0)-|   A|-----0-|

F|----------------------------|
C|----------------------------|
G|----------------------------|
D|----------------------------|
A|-x-x-x-x-0--x-x-x-x-0--x-x-0|

Chorus
F|---------------------|--------------|
C|---------------------|--------------|
G|---------------------|--------------|
D|-----2/7----6--------|--6-6-6\------|
A|-0-------------------|---------1--1-|

Outro:
F|-------|
C|-------|
G|-------|
D|-----7-|
A|-----0-|

Comment this song and these bass tabs

Do you have corrections, comments on the bass tabs, thoughts about the song or a message to the author? Write them below.