Guitar Tabs Explorer
Korn guitar tabs for Are you ready to live

Are You Ready To Live tab


Be the first to rate

Are You Ready To Live tab by Korn

Guitar tabs

Print

Tabbed By: FRr3AkOnALEaSh (smokin_05@hotmail.com)
Tuning: 7 String Tuned Low to High (A chord diagramAA D chord diagramDD G chord diagramGG C chord diagramCC F chord diagramFF a d)

Vocal: Jonathan Houseman Davis 'Hiv'
Guitar: James Randal Shaffer 'Munky'
Bass: Reginald Arvizu 'Fieldy
Drums: Ray Luzier

Riff 1 (Intro/Chorus)
D|-----------------------|(G1 chord diagramG1G1)
A|-----------------------|
F| chord diagramF|F|-----------------------|
C| chord diagramC|C|-----------------------|
G|-----------------------|
D|-----------------------|
A|--0000-15-0-14-00-12\--|

Riff 2 (Intro/Chorus)
D|------------|----------|(G2 chord diagramG2G2)
A|--16161616--|--16------|
F| chord diagramF|F|------------|----1616--|
C| chord diagramC|C|------------|----------|
G|------------|----------|
D|------------|----------|
A|------------|----------|

Riff 3 (Verse)
D|-------------|(G1 chord diagramG1G1)
A|-------------|
F| chord diagramF|F|-------------|
C| chord diagramC|C|-------------|
G|-------------|
D|--44444-333--|
A|--22222-111--|
    ..... ...   PM

Riff 4 (Verse)
D|------|(G2 chord diagramG2G2)
A|--14~-|
F| chord diagramF|F|--^^--| Munky is using some special
C| chord diagramC|C|------| electronic device that wasn't
G|------| played on the 7 string guitar
D|------| originally.
A|------|

Riff 5 (Verse)
D|--------------------------|(G1 chord diagramG1G1)
A|--------------------------|
F| chord diagramF|F|--------------------------|
C| chord diagramC|C|--------------------------|
G|----10----10-----9-----9--|
D|-----9-----9-----8-----8--|
A|--0-----0-----0-----0-----|
    .     .     .     .      PM

Riff 6 (Verse)
D|-------------|(G1 chord diagramG1G1)
A|-------------|
F| chord diagramF|F|-------------|
C| chord diagramC|C|-------------|
G|-------------|
D|-------------|
A|--22222-111--|

Riff 7 (Verse/Fill)(2nd Verse)
D|--6h7-6h7-6h7-6h7--|(G2 chord diagramG2G2)
A|-------------------|
F| chord diagramF|F|-------------------| Fast hammer-on
C| chord diagramC|C|-------------------|
G|-------------------|
D|-------------------|
A|-------------------|

Riff 8 (Breakdown/Outro)
D|-----------------------------------|(G2 chord diagramG2G2)
A|------0-------0-------0-------0----|
F| chord diagramF|F|----7---7---7---7---7---7---7---7--|
C| chord diagramC|C|-----------------------------------|
G|-----------------------------------|
D|--7-------7-------7-------7--------|
A|-----------------------------------|

Riff 9 (Breakdown/Outro)
D|-----------------------------------|(G2 chord diagramG2G2)
A|------0-------0-------0-------0----|
F| chord diagramF|F|----7---7---6---6---6---6---6---6--|
C| chord diagramC|C|-----------------------------------|
G|-----------------------------------|
D|--5-------5-------5-------5--------|
A|-----------------------------------|

Riff 10 (Breakdown/Outro)
D|-----------------------------------|(G2 chord diagramG2G2)
A|------5-------5-------5-------5----|
F| chord diagramF|F|----6---6---6---6---6---6---6---6--|
C| chord diagramC|C|-----------------------------------|
G|-----------------------------------|
D|--4-------4-------4-------4--------|
A|-----------------------------------|

Rif 11 (Breakdown/Outro)
D|-----------------------------------|(G2 chord diagramG2G2)
A|------5-------5-------5-------5----|
F| chord diagramF|F|----6---6---6---6---6---6---6---6--|
C| chord diagramC|C|-----------------------------------|
G|-----------------------------------|
D|--6-------6-------6-------6--------|
A|-----------------------------------|

Riff 12 (Breakdown)
D|--------------------|--------------------|(G1 chord diagramG1G1)
A|--------------------|--------------------|
F| chord diagramF|F|--------------------|--------------------|
C| chord diagramC|C|--------------------|--------------------|
G|--9999999999999999--|--7777777777777777--|
D|--7777777777777777--|--5555555555555555--|
A|--------------------|--------------------|
    ................     ................   PM

Riff 13 (Breakdown)
D|-----------------------------------|--------------------|(G1 chord diagramG1G1)
A|-----------------------------------|--------------------|
F| chord diagramF|F|-----------------------------------|--------------------|
C| chord diagramC|C|-----------------------------------|--------------------|
G|-10101010101010101010101010101010--|--8888888888888888--|
D|--9-9-9-9-9-9-9-9-9-9-9-9-9-9-9-9--|--6666666666666666--|
A|-----------------------------------|--------------------|
    . . . . . . . . . . . . . . . .     ................   PM

Comment this song and these guitar tabs

Do you have corrections, comments on the guitar tabs, thoughts about the song or a message to the author? Write them below.