Guitar Tabs Explorer
Korn bass tabs for Alone i break

Alone I Break bass tab


Be the first to rate

Alone I Break bass tab by Korn

Bass tabs

Print
This song the only pure clean tone Korn song. Yet another fantastic Korn song. But i kind of had trouble with this song. So hopfully this tab can be helpfull.

5 string bass tuned down 1 step

"..right here..right now"

F---------------------------------
C---------------------------------
G---------------------------------
D---4--------6---------4---------2
A---------------------------------


"..I WILL MAKE IT GO AWAY."         2nd half-----repeat 3x---

F
C
G----------11-11----------13-13--11----------11-11--------11-13
D
A--11-11-11-----10--10-10------------11-11-11-----10-10-10----


pre choures

F
C-----------6---------------6-------------
G---------8---------------8----------8--10
D-6-----6---------6-----6----------6-------
A

choures

F
C
G
D-6-6-6-6--6-6--6--6-6-6-6-0--8-8-8-8--8-8-8-8-8-8-0-
A

F
C
G
D-4-4-4-4--4-4--4-4-4-4--0--2-2-2-2--2-2-2-2-2--3-3-3-3-
A

THATS IT! enjoy.

Comment this song and these bass tabs

Do you have corrections, comments on the bass tabs, thoughts about the song or a message to the author? Write them below.